>
 >
Anthem

Anthem Guitar Tabs

Edenbridge - Anthem chords, tabs, tablatures, lyrics

Guitar lessons | Add/correct | Request | Top 50 tabs Artists:  A B C D E F G H I J K L M N O P Q R S T U V W X Y Z 0-9

Anthem Guitar Tabs – Edenbridge

CD, Sheet music, Poster

Do you like Anthem? Share with your friends now
Tabs
Band = Edenbridge
Song = Anthem
CD   = Shine


[---------------------|--------------------]
[---------s-----s-----|----------h--b~~~~--]
[--12--10-\-15--\--8--|--8--10--8-10-------]
[---------------------|--------------------]
[---------------------|--------------------]
[---------------------|--------------------]



[-------------------h---s--------------|-------------]
[---------s-----16-15-16\----s----s----|---b~~~------]
[--12--10-\-15------------12-\-15-\-8--|--8-----8-8--]
[--------------------------------------|-------------]
[--------------------------------------|-------------]
[--------------------------------------|-------------]



[-------------------------------------------------------------]
[-----------------------------------h------br----h----------s-]
[----12----15---12--8----s-------8-7-8-9--12---12-13--15-15-\-]
[--8----13-------------12\10---6------------------------------]
[-------------------------------------------------------------]
[-------------------------------------------------------------]



[-----------------h-----brp-------|----------------]
[-----------b---13-15--15--13-----|-----br---------]
[----12-13-13-----------------12--|-8-10-----------]
[--8------------------------------|---------13-13--]
[---------------------------------|----------------]
[---------------------------------|----------------]



[--------------------------------]
[--16----18--16------------------]
[-----15-----------s---15----s---]
[---------------15\17-----17-\---]
[--------------------------------]
[--------------------------------]


                         hold-----------
[----h----b---br----h-----b--11----13--rb---------]
[--11-13-13--13---11-13--13-----13----13---11-----]
[---------------------------------------------12--]
[-------------------------------------------------]
[-------------------------------------------------]
[-------------------------------------------------]



[------------------b---br---h----rb-------|--------------------]
[-----13----15----15--15--13-15-15--------|-------br-----------]
[--12----12----12-------------------15-12-|-12-13-13-12--------]
[-----------------------------------------|-------------13-10--]
[-----------------------------------------|--------------------]
[-----------------------------------------|--------------------]



[--------------|-------------------------|---------------------|--------hold]
[--------------|-11--br-brp--------------|-13----s--15---s--16-|-----17-16-\]
[--8--10----10-|----12------10-----10-12-|-----8-\-----8-\-----|--15--------]
[---------8----|---------------13--------|---------------------|------------]
[--------------|-------------------------|---------------------|------------]
[--------------|-------------------------|---------------------|------------]


              b            
[-----15--16-16--16-15----]
[----------------------16-]
[--15---------------------]
[-------------------------]
[-------------------------]
[-------------------------]


fast
[-------------------------------------------------13-----------]
[-16-13-------------------------------------13-16----13---s----]
[-------15-12-------------------------12-15-------------15\17--]
[-------------15-13-------------13-15--------------------------]
[-------------------15-13-13-15--------------------------------]
[--------------------------------------------------------------]


                     br   fast
[--------13-----13--15--|-15-13---------------------------]
[--15-16----------------|-------16-13---------------------]
[------------15---------|-------------15--------s------s--]
[-----------------------|----------------15-15--\--17--\--]
[-----------------------|---------------------------------]
[-----------------------|---------------------------------]


                                                            br
[--------------------------------|--------------b--20--22--22--20------]
[-----16----18--16---------------|-20-21-20-21-21------------------20--]
[--15----15--------15-------s----|-------------------------------------]
[---------------------15-15-\-17-|-------------------------------------]
[--------------------------------|-------------------------------------]
[--------------------------------|-------------------------------------]


                        hold----                       br   h     br        s
[------br--------b-------b--|-----16-18-16----16--|-18--18-20--20--18--18-\-]
[--15-16--15-16-16---16-18--|--18----------16-----|-------------------------]
[---------------------------|---------------------|-------------------------]
[---------------------------|---------------------|-------------------------]
[---------------------------|---------------------|-------------------------]
[---------------------------|---------------------|-------------------------]


Short tune but a classic.
Enjoy





Comments


Popular Edenbridge tabs & chords
Centennial Legend Chords
Elsewhere Chords
In The Rain Chords
Empire Of The Sun Tabs
Centennial Legend Ukulele
Elsewhere Ukulele
In The Rain Ukulele


Song lyrics



↑ Back to top | Tablatures and chords are parodies/interpretations of the original songs. You may use it for private study, scholarship, research or language learning purposes only
© 2014 AZChords.com Contact us | Privacy policy | DMCA | Add/correct tabs | Request tabs | Top 50 tabs