» » »

Society Tabs (ver.4)

Artists:  A B C D E F G H I J K L M N O P Q R S T U V W X Y Z # 

Society Tabs (ver.4)

Eddie Vedder
Rating:
0/5 (0 votes)

Tabs too difficult? Try these video lessons and learn fast.
                capo 2

------------------------------------------------|
------------------------------------------------|
--------7---77-99---7-9-11----------------------|
---7-9------------------------------------------|
------------------------------------------------|
------------------------------------------------|

-------------------------------------------------|
-------------------------------------------------|
---7-7-11--14-14--14-16-16---16-14---------------|
-------------------------------------------------|
-------------------------------------------------|
-------------------------------------------------|

------------------------------------------------|
------------------------------------------------|
---7-11--12-12-12-11--9------7-9-11-------------|
------------------------------------------------|
------------------------------------------------|
------------------------------------------------|

------------------------------------------------|
------------------------------------------------|
----11-11--9-7---------------7---7-9+---7-------|
----------------9-------7-9----------------9----|
------------------------------------------------|
------------------------------------------------|

--------------------------------------------------|
--------------------------------------------------|
----12-12--- 12-12_11--11-11-9-7-9---9-9-7--------|
-----------------------------------------------9--|
--------------------------------------------------|
--------------------------------------------------|
            
Tabs too difficult? Try these video lessons and learn fast.




comments powered by Disqus
↑ Back to top | Tablatures and chords are parodies/interpretations of the original songs. You may use it for private study, scholarship, research or language learning purposes only