» » »

Eddie Vedder, Satellite Tabs (ver.1)

Artists:  A B C D E F G H I J K L M N O P Q R S T U V W X Y Z # 

Satellite Tabs (ver.1)

Eddie Vedder Tabs
 Rating:
4.3/5 (6 votes)
Satellite lessons Tabs too difficult? Try these video lessons and learn fast
                Eddie Vedder
Ukulele Songs (2011)

Capo on 5th fret or (C-G-E-A) Ukulele tuning.


Intro:

|----3-----3------2--2-0-2--|
|----1--1----1----1--1-1-1--|
|----2----2----2--2---------| (x2)
|----0------------0---------|
|---------------------------|
|---------------------------|

|----3-----3------2--2-2-2--|
|----1--1----1----1--1-1-1--|
|----2----2----2--2--2-2-2--| 
|----0------------0--0-0-0--|
|---------------------------|
|---------------------------|


Verse 1:

     It's no shame that... Love's a game that   I   can   only            play with you
|--0-0-3-0---0---3-0----2-2-2-3-2--2-2-2-3-2--2------2-----2-----2------0------0------2-2-2-0-0-0|
|--1-1-----1---1-----1--3-3--------3-3--------0--0-----0-----0-----0----0--0-----0----0-0-0-0-0-0|
|--0-0------------------2-2--------2----------2----2-----2-----2-----2--1----1-----1--1-1-1-1-1-1|
|--2-2------------------0-0--------0----------0-------------------------0-------------0----------|
|------------------------------------------------------------------------------------------------|
|------------------------------------------------------------------------------------------------|


     What I'm saying      Is Im here waiting        For you
|--0-0-3-0---0---3-0----2------2-----3-----5------3-----3-----3-----3------1-----1-----3-----1-0-|
|--1-1-----1---1-----1--3--3-----3-----3-----3----0-0-----0-----0-----0----0-0-----0---0-0-------|
|--2-2------------------2----2-----2-----2-----2--0---0-----0-----0-----0--0---0-----0-0---0-----|
|--2-2------------------0-------------------------0------------------------0-----------0---------|
|------------------------------------------------------------------------------------------------|
|------------------------------------------------------------------------------------------------|




Chorus 1: (strumming variation)


     I've seen the light, Im Satisfied that The brightest star is you
|----2--------------------------1-------------3-----------------2-(3)---|
|----3--------------------------0-------------3-----------------3-(3)---|
|----2--------------------------1-------------3-----------------2-(2)---|
|----0--------------------------0-------------0-----------------0-(0)---|
|-----------------------------------------------------------------------|
|-----------------------------------------------------------------------|

     Satellite, Im         Holding tight     Beaming back to you
|----2--------------------------1-------------3-----------------2-(3)---|
|----3--------------------------0-------------3-----------------3-(3)---|
|----2--------------------------1-------------3-----------------2-(2)---|
|----0--------------------------0-------------0-----------------0-(0)---|
|-----------------------------------------------------------------------|
|-----------------------------------------------------------------------|


Verse 2:

     Days turn into       Nights turn into     Days turn   into     today
|--0-0-3-0---0---3-0----2-2-2-3-2--2-2-2-3-2--2------2-----2-----2------0------0------2-2-2-0-0-0|
|--1-1-----1---1-----1--3-3--------3-3--------0--0-----0-----0-----0----0--0-----0----0-0-0-0-0-0|
|--0-0------------------2-2--------2----------2----2-----2-----2-----2--1----1-----1--1-1-1-1-1-1|
|--2-2------------------0-0--------0----------0-------------------------0-------------0----------|
|------------------------------------------------------------------------------------------------|
|------------------------------------------------------------------------------------------------|


   Don't think Im out playing Cause Im inside waiting For you
|--0-0-3-0---0---3-0----2------2-----3-----5------3-----3-----3-----3------1-----1-----3-----1-0-|
|--1-1-----1---1-----1--3--3-----3-----3-----3----0-0-----0-----0-----0----0-0-----0---0-0-------|
|--2-2------------------2----2-----2-----2-----2--0---0-----0-----0-----0--0---0-----0-0---0-----|
|--2-2------------------0-------------------------0------------------------0-----------0---------|
|------------------------------------------------------------------------------------------------|
|------------------------------------------------------------------------------------------------|


Chorus 2: (tabs same as chorus 1) 

I've felt the light, Im Satisfied that The highest star is you

Satellite, Im Holding tight Beaming back to you




Outro:(strumming variation)

  Don't you worry      I believe your story  You were put away For something you didn't do
|----3-3--------------------3----------------2---------------------0--2-0---------------|
|----1-1--------------------1----------------0---------------------0--0-0---------------|
|----2-2--------------------0----------------2---------------------1--1-1---------------|
|----2-2--------------------1----------------0---------------------0--0-0---------------|
|---------------------------------------------------------------------------------------|
|---------------------------------------------------------------------------------------|

  While Im waiting I've been saving
|----0-0-3-0---0---3-0----2--|
|----1-1-----1---1-----1--3--|
|----2-2------------------2--|
|----2-2------------------0--|
|----------------------------|
|----------------------------|

 My love
|----3-----3------2--2-0-2--|
|----1--1----1----1--1-1-1--|
|----2----2----2--2---------| (x2)
|----0------------0---------|
|---------------------------|
|---------------------------|

|----3-----3------2--2-0-0h2-----3----|
|----1--1----1----1--1-1---1-----3----|
|----2----2----2--2--------------0----| 
|----0------------0--------------0----|
|-------------------------------------|
|-------------------------------------|
            
Submit corrections

comments powered by Disqus
↑ Back to top | Eddie Vedder Tabs for Satellite. Lyrics for acoustic guitar and electric guitar. Tablatures and chords are parodies/interpretations of the original songs. You may use it for private study, scholarship, research or language learning purposes only