» » »

Eddie Vedder, Broken Heart Tabs (ver.1)

Artists:  A B C D E F G H I J K L M N O P Q R S T U V W X Y Z # 

Broken Heart Tabs (ver.1)

Eddie Vedder Tabs
 Rating:
4.3/5 (6 votes)
Broken Heart lessons Tabs too difficult? Try these video lessons and learn fast
1
                Eddie Vedder - Broken Heart
Ukulele Songs

Capo 5th

Verse

e-2-----2-----3-----3-----2-----2-----2-----2-----3-----3-------|
B---3-----3-----2-----2-----3-----3-----1-----1-----0-----0-----|
G-----2-----2-----2-----2-----2-----2-----2-----2-----0-----0---|
D---------------------------------------------------------------|
A---------------------------------------------------------------|
E---------------------------------------------------------------|

e--3-----3-----2-----2-----0-----0h2--------|
B----3-----3-----3-----3-----2-------3------|
G------3-----3-----2-----2-----3-------2----|
D-------------------------------------------|
A-------------------------------------------|
E-------------------------------------------|

e-2-----2-----3-----3-----2-----2-----2-----2-----0-----0-------|
B---3-----3-----2-----2-----3-----3-----1-----1-----0-----0-----|
G-----2-----2-----2-----2-----2-----2-----2-----2-----1-----1---|
D---------------------------------------------------------------|
A---------------------------------------------------------------|
E---------------------------------------------------------------|

e--2-----2-----0-----0-----0-----0-----------|
B----0-----0-----2-----2-----2------2--------|
G------1-----1-----0-----0-----0------0------|
D--------------------------------------------|
A--------------------------------------------|
E--------------------------------------------|

Chorus

e-3-----3-----0-----0-----2-----2-----2-----2-----|
B---3-----3-----2-----2-----3-----3-----3-----3---|
G-----4-----4-----2-----2-----2-----2-----2-----2-|
D-------------------------------------------------|
A-------------------------------------------------|
E-------------------------------------------------|

e-3-----3-----0-----0-----2-----2-----3-----5-----|
B---3-----3-----2-----2-----3-----3-----3-----3---|
G-----4-----4-----2-----2-----2-----2-----2-----2-|
D-------------------------------------------------|
A-------------------------------------------------|
E-------------------------------------------------|

e-3-----3-----0-----0-----2-----2-----2-----2-----0-----0-----0-----0-----|
B---3-----3-----2-----2-----3-----3-----3-----3-----2-----2-----2-----2---|
G-----4-----4-----2-----2-----2-----2-----2-----2-----0-----0-----0-----0-|
D-------------------------------------------------------------------------|
A-------------------------------------------------------------------------|
E-------------------------------------------------------------------------|

Instrumental

e--3-----3------0-----2-----3-----3-----0-----2----------|
B----3-----3------0-----0-----3-----4-----0-----0--------|
G------4-----4------1-----1-----4-----5-----1-----0------|
D--5------------2-----------5-----------2----------------|
A--------------------------------------------------------|
E--------------------------------------------------------|


don't mind me, just let me be
my eyes so far away
i don't need no sympathy
the word seems overplayed

i'm alright, it's just tonight
i can't play the part
i'm alright, it's alright
it's just a broken heart

don't have eyes for the world outside
they're closed and turned within
trying to find the light inside
it's lit, but growing dim

i'm alright, it's just tonight
i can't play the part
i'm alright, it's alright
it's just a broken heart
            
Submit corrections

comments powered by Disqus
↑ Back to top | Eddie Vedder Tabs for Broken Heart. Lyrics for acoustic guitar and electric guitar. 1 Tablatures and chords are parodies/interpretations of the original songs. You may use it for private study, scholarship, research or language learning purposes only