» » »

Eddie Van Halen, Unchained Tabs (ver.1)

Artists:  A B C D E F G H I J K L M N O P Q R S T U V W X Y Z # 

Unchained Tabs (ver.1)

Eddie Van Halen Tabs
 Rating:
4/5 (4 votes)
Unchained lessons Tabs too difficult? Try these video lessons and learn fast
1
                
Intro
              [      PM     ]         PM          PM       PM              PM
|---------------------------------------------------------------------------------------|
|----7-----8------------------3--4--3-----5--6--5---7--8--------10--11--10----10--8-----|
|----7-----7------------------3--3--3-----5--5--5---7--7--------10--10--10----10--9-----|
|----7-----7------------------3--3--3-----5--5--5---7--7--------10--10--10-10-10--10----|
|----5-----5----------------------------------------5--5--------------------------------|
|-------------0---0---0---0-----------0-----------0-------0-0-0-------------------------|
             during the off tone D# the pick is scr*ped down the strings toward the head

Verse
     ~~~~~~~     PM    AH  PM                                 PM   AH~~~~~~~    PM   ^
|---------------------------------------------------------------------------------------|
|---------------------------------------------------------------------------------------|
|------------------------------------------3--------5-----------------------------------|
|--------------------------------------3-----------------5------------------------------|
|---3--------5---------3---------5------------5/7-------------------3--------5-------3--|
|----------------0--------0--0-------------------------------0--0----------------0------|

    PM
|---------------------------------------------------------------------------------------|
|---------------10--10------8-----------------------------------------------------------|
|------------------------------9--------------------------------------------------------|
|---------5/10----------10--------------------------------------------------------------|
|---------------------------------------------------------------------------------------|
|--0--0---------------------------------------------------------------------------------|

Chorus

      harm     harm                    
|----------------------------------------------------------------------------------------|
|----------------------------------------------------------------------------------------|
|--7-----7-----------7\5/7-----------7--7-----7\5/7---------------9-----9-----------9\7/9|
|--5--5--5-----5--5--5\3/5-----------5--5-----5\3/5---------7--7--7--7--7-----------7\5/7|
|-----------5---------------5--3-----------5---------3--7\-----------------7--7--7-------|
|-----------5---------------5--3-----------5---------3--7\-----------------7--7--7-------|

         harm
|----------------------------------------------------------------------------------------|
|----------------------------------------------------------------------------------------|
|--------------9--9----------------------------------------------------------------------|
|-----------7--7--7----------------------------------------------------------------------|
|--7--5--7-----------5--7--6--5--3-------------------------------------------------------|
|--7--5--------------5--7--6--5--3-------------------------------------------------------|

I'll work on the solos later.


Tune down 1/2 step

This riff serves as both the intro and the chorus. It is played twice each 
time. I haven't figured out the rest of it. 

|---2--3--------------------------------------2--3-----------5--6--5---------|
|---3--3-----------------3--4--3--5--6--5--x--3--3-----------6--6--6--6--5---|
|o--2--2-----------------3--3--3--5--5--5--x--2--2-----------5--5--5--5--5--o|
|o--0--0--0--0--0--0--0--3--3--3--5--5--5--x--0--0--0--0--0--x--x-----5--5--o|
|----------------------------------------------------------------------------|
            
Submit corrections

comments powered by Disqus
↑ Back to top | Eddie Van Halen Tabs for Unchained. Lyrics for acoustic guitar and electric guitar. 1 Tablatures and chords are parodies/interpretations of the original songs. You may use it for private study, scholarship, research or language learning purposes only