» » »

Eddie Van Halen, Can Stop Lovin You Tabs (ver.1)

Artists:  A B C D E F G H I J K L M N O P Q R S T U V W X Y Z # 

Can Stop Lovin You Tabs (ver.1)

Eddie Van Halen Tabs
 Rating:
4/5 (4 votes)
Can	 Stop Lovin You lessons Tabs too difficult? Try these video lessons and learn fast
1
                Here is a cool Van Halen song.  All I know is the main
     riff and the solo which is surprisingly easy for an 
     Eddie solo.  Anyways here is Cant stop loving you.
     Verse:
     ---0------------------|-----------------------|
     ---3---3---2---0---2--|---10---10^---9--10--10|
     ---2---2---2---2---2--|-----------------------|
     ---2---2---2---2---2--|-----------------------|
     ---0------------------|-----------------------|
     ----------------------|-----------------------|
     Also on the verse a second guitarist strums the second fret
     on the top E string(thickest), or you can use your thumb
     as Eddie does.

     Solo:
     ------------------------------------------|----------
     ---8---7\5----5---5\8----8/10---10\8\7\5--|----------
     ------------------------------------------|----------
     ------------------------------------------|----------
     ------------------------------------------|----------
     ------------------------------------------|----------

     ---------------------------|------------------------|
     ---------------------------|------------------------|
     -------------------5\7\9---|-----4------------------|
     -----------5\7\9-----------|--4----5------2-------2-|
     ---5\7\9-------------------|--5------5----2-----2---|
     ---------------------------|--5-----------3---3-----|

     --0----|---------------------------------|-----------
     --0----|---------------------------------|-----------
     --2----|---7/9----7---6------------------|-----------
     --2----|------------------7--------------|-----------
     --0----|----------------------7---5---4--|-----------
     -------|---------------------------------|-----------

Enjoy!
            
Submit corrections

comments powered by Disqus
↑ Back to top | Eddie Van Halen Tabs for Can Stop Lovin You. Lyrics for acoustic guitar and electric guitar. 1 Tablatures and chords are parodies/interpretations of the original songs. You may use it for private study, scholarship, research or language learning purposes only