» » »

Eddie Van Halen, Ain't Talkin' 'Bout Love Tabs (ver.1)

Artists:  A B C D E F G H I J K L M N O P Q R S T U V W X Y Z # 

Ain't Talkin' 'Bout Love Tabs (ver.1)

Eddie Van Halen Tabs
Rating:
0/5 (0 votes)
Ain't Talkin' 'Bout Love lessons Tabs too difficult? Try these video lessons and learn fast
                "Ain't Talkin' 'Bout Love" (Van Halen)
intro:
Am         F     G
---------0-1-----3--------------
-----1-------1-----3------------
-------2-------0-----0----------
---2----------------------------
-0-------------------0-3b*-2-3--
--------------------------------
                          *pinch harmonic

Chorus: Am (x0221x)
        G  (3x000x)

verse
Am       F    G
---------1----3----------------
-----1-----1--3----------------
-------2------0----------------
---2---------------------------
-0----------------0-3--2-3-----
-------------------------------

I'll try to post the solo later.....
Check y'all


Another version of this famous riff:

e---------------------------------------------------------------||
B---------------------------------------------------------------||
G--------------------10-----12(h)-------------------------------||
D-----10------14-15-----12-------12(h)--------------------------||
A---7------12---------------------------0--3-(a.h.)-2--3-(a.h.)-||
E-5-------------------------------------------------------------||


Enjoy!
            

comments powered by Disqus
↑ Back to top | Eddie Van Halen Tabs for Ain't Talkin' 'Bout Love. Lyrics for acoustic guitar and electric guitar. Tablatures and chords are parodies/interpretations of the original songs. You may use it for private study, scholarship, research or language learning purposes only