» » »

Eddie Money, Two Tickets To Paradise Tabs (ver.2)

Artists:  A B C D E F G H I J K L M N O P Q R S T U V W X Y Z # 

Two Tickets To Paradise Tabs (ver.2)

Eddie Money Tabs
Rating:
5/5 (14 votes)
Two Tickets To Paradise lessons Tabs too difficult? Try these video lessons and learn fast
                #------------------------------------------------------------------------------##

Two Tickets To Paradise
By Eddie Money

-------------------------------------------------------------------------
<  = hammer on or pull off
s  = slide
Intro:

E-------------------|------------------|------------------|------------------------|
B--2-3--55--33--|-22--------------|--2-3--55--33-|-22------------------------------|
G------------------|------44-2s4s6-|-----------------|------44--4s6-4-2------------|
D------------------|-------------------|-----------------|-------------------------|
A------------------|-------------------|-----------------|-------------------------|
E------------------|-------------------|-----------------|-------------------------|

Drum Fill.

                G                                A
I've got a surprise especially for you.

                         G                                                 A
Something that both of us have always wanted to do.

Repeat 2X
E--------------------|----------------|-----------------|--------------------|
B--------------------|----------------|-----------------|--------------------|
G--------------4----|----------------|-------------6--|----------------------|
D---7-6-4----5----|----------------|--7-6-------7--|-------------------------|
A--------------5----|----------------|--------7----7--|----------------------|
E--------------3----|----------------|-------------5---|---------------------|
     Waited So Long               Waited So long

                  G                                                 A
I'm Gonna Take You On A Trip So Far From Here.

                   G                                          A
I've got two tickets baby, we're gonna dissapear.


E--------------------|----------------|----------------|--------------------|
B--------------------|----------------|----------------|--------------------|
G------7------------|----------------|----------7>9-|---7-----7-------------|
D------7----5---5--|-------7--7---|----7>9--------|------9------------------|
A------5----5---5--|-------7--7---|-----------------|-----------------------|
E-----------3---3--|-------5---5---|-----------------|----------------------|
I've Got 2 Tickets To Paradise

E--------------------|----------------|----------------|--------------------|
B--------------------|----------------|----------------|--------------------|
G------7------------|----------------|----------7>9-|---7-----7-------------|
D------7----5---5--|-------7--7---|----7>9--------|------9------------------|
A------5----5---5--|-------7--7---|-----------------|-----------------------|
E-----------3---3--|-------5---5---|-----------------|----------------------|
Pack Your Bags W'ell Leave Tonight.

E--------------------|----------------|----------------|--------------------|
B--------------------|----------------|----------------|--------------------|
G------7------------|----------------|----------7>9-|---7-----7-------------|
D------7----5---5--|-------7--7---|----7>9--------|------9------------------|
A------5----5---5--|-------7--7---|-----------------|-----------------------|
E-----------3---3--|-------5---5---|-----------------|----------------------|
      2 Tickets To Paradise

                                                Intro to Solo
E--------------------|----------------|-----------------|---------------------|
B--------------------|----------------|-2-3--55-33--|-22----------------------|
G------7------------|----------------|-----------------|-----44--2--4s6-------|
D------7----5---5--|-------7--7---|-----------------|-------------------------|
A------5----5---5--|-------7--7---|-----------------|-------------------------|
E-----------3---3--|-------5---5---|-----------------|------------------------|
       2 tickets to paradise.
                                                 Solo
E-------------------|-------------------|------------------|------------------------|
B--2-3--55--33--|-22---------------|--2-3--55------|--------------------------------|
G------------------|-----44-4s6-4-2-|-----------------|-----------------------------|
D------------------|--------------------|-----------------|-------------------------|
A------------------|--------------------|-----------------|-------------------------|
E------------------|--------------------|-----------------|-------------------------|

This is a great solo, but off the top of my head I can't remember it.
Have fun with the rest of the song.
            
Submit corrections

comments powered by Disqus
↑ Back to top | Eddie Money Tabs for Two Tickets To Paradise. Lyrics for acoustic guitar and electric guitar. Tablatures and chords are parodies/interpretations of the original songs. You may use it for private study, scholarship, research or language learning purposes only