» » »

Eddie Money, Take Me Home Tonight Tabs (ver.3)

Artists:  A B C D E F G H I J K L M N O P Q R S T U V W X Y Z # 

Take Me Home Tonight Tabs (ver.3)

Eddie Money Tabs
 Rating:
3.6/5 (5 votes)
Take Me Home Tonight lessons Tabs too difficult? Try these video lessons and learn fast
1
                -------------------------------------------------------------------------------
                             Take Me Home Tonight - Eddie Money
-------------------------------------------------------------------------------


Tuning: E A D G B E


Intro
Slight Palm Mute
e|-------------------------------------------------------------|
B|-------------------------------------------------------------|
G|-------------------------------------------------------------|
D|------8----4---4-----4-----6----6----------------------------|
A|----8----4---------4-----6-----------------------------------|
E|--6----2-----2---2-----4-----4-------------------------------|


Pre-Chorus
    F#6     F#4     F#4
e|-------------------------------------------------------------|
B|----------7-------7------------------------------------------|
G|----------6-------6------------------------------------------|
D|--4-------4-------4------------------------------------------|
A|--4----------------------------------------------------------|
E|--2----------------------------------------------------------|

Chorus-3 Measures and then - hold
     C#  G#  A#  F#           F#
-|----------------------||-------------------------------------|
B|----------------------||-------------------------------------|
G|---6------------------||-------------------------------------|
D|---6---6---8---4-----:||----4--------------------------------|
A|---4---6---8---4------||----4--------------------------------|
E|-------4---6---2------||----2--------------------------------|


Lead Break-Walkdown
   A#        G# F# F D#  F#
e|-------------------------------------------------------------|
B|-------------------------------------------------------------|
G|-------------------------------------------------------------|
D|-8---------6--4--3--1--4-------------------------------------|
A|-8---------6--4--3--1--4-------------------------------------|
E|-6--hold---4--2--1-----2-------------------------------------|

Repeat Chorus

Enjoy

Pete Maginis
(Not Real Name)

| /  slide up
| \  slide down
| h  hammer-on
| p  pull-off
| ~  vibrato
| +  harmonic
| x  Mute note
===============================================================================
END

+--------------------------------------------------------------------------+
| or research.                                                             |
+--------------------------------------------------------------------------+
            
Submit corrections

comments powered by Disqus
↑ Back to top | Eddie Money Tabs for Take Me Home Tonight. Lyrics for acoustic guitar and electric guitar. 1 Tablatures and chords are parodies/interpretations of the original songs. You may use it for private study, scholarship, research or language learning purposes only