» » »

Eddie Money, Take Me Home Tonight Tabs (ver.1)

Artists:  A B C D E F G H I J K L M N O P Q R S T U V W X Y Z # 

Take Me Home Tonight Tabs (ver.1)

Eddie Money Tabs
Rating:
3/5 (3 votes)
Take Me Home Tonight lessons Tabs too difficult? Try these video lessons and learn fast
                Eddie Money
Can't Hold Back (1986)

Intro (0:00-0:21)
                                      X4
|-------------------------------------|
|o-----------------------------------o|
|-------6-----6---------6-----8-------|
|-----------6-----6---6---6-8---6-8---|
|o----8---9-----9---9----------------o|
|---6---------------------------------|

Verse 1(0:22-0:49)
                                      X8
|-------------------------------------|
|o-----------------------------------o|
|-------6-----6---------6-----8-------|
|-----------6-----6---6---6-8---6-8---|
|o----8---9-----9---9----------------o|
|---6---------------------------------|

Pre-chorus 1(0:50-1:00)

|-------------------------------------------|
|-------------------------------------------|
|--3---3---6-------8-------6-------8--------|
|--4---4-----6-4-6---6-4-6---6-4-6---6-4-6--|
|--4---4------------------------------------|
|--2---2------------------------------------|

Chorus 1(1:01-1:22)
                 X3                                         X2
|----------------|-----|------------------------------------|
|o--------------o|-----|o----------------------------------o|
|---6------------|-----|------6-----6---------6-----8-------|
|---6--6--8--4---|--4--|----------6-----6---6---6-8---6-8---|
|o--4--6--8--4--o|--4--|o---8---9-----9---9----------------o|
|------4--6--2---|--2--|--6---------------------------------|

Verse 2(1:23-1:36)
                                      X4
|-------------------------------------|
|o-----------------------------------o|
|-------6-----6---------6-----8-------|
|-----------6-----6---6---6-8---6-8---|
|o----8---9-----9---9----------------o|
|---6---------------------------------|

Pre-chorus 2(1:37-1:47)

|-------------------------------------------|
|-------------------------------------------|
|--3---3---6-------8-------6-------8--------|
|--4---4-----6-4-6---6-4-6---6-4-6---6-4-6--|
|--4---4------------------------------------|
|--2---2------------------------------------|

Chorus 2(1:48-2:06)
                 X3 
|----------------|-----|-----------------------------------|
|o--------------o|-----|-----------------------------------|
|---6------------|-----|------6-----6---------6-----8------|
|---6--6--8--4---|--4--|----------6-----6---6---6-8---6-8--|
|o--4--6--8--4--o|--4--|----8---9-----9---9----------------|
|------4--6--2---|--2--|--6--------------------------------|

Bridge(2:07-2:34)
                                      X2
|-------------------------------------|
|o-----------------------------------o|
|-------6-----6---------6-----8-------|
|-----------6-----6---6---6-8---6-8---|
|o----8---9-----9---9----------------o|
|---6---------------------------------|

|------------------|
|------------4--6--|
|------------3--5--|
|------4-----1--3--|
|------4-----1-----|
|--6\--2--1--------|

keyboard and sax

Chorus 3(2:35-3:30)
                 X3
|----------------|-----| \
|o--------------o|-----|  \
|---6------------|-----|   \Repeat and fade
|---6--6--8--4---|--4--|   /
|o--4--6--8--4--o|--4--|  /
|------4--6--2---|--2--| /

=================Please rate and/or comment======================
            
Submit corrections

comments powered by Disqus
↑ Back to top | Eddie Money Tabs for Take Me Home Tonight. Lyrics for acoustic guitar and electric guitar. Tablatures and chords are parodies/interpretations of the original songs. You may use it for private study, scholarship, research or language learning purposes only