» » »

Eddie From Ohio, Twenty Thousand Hearts Tabs (ver.1)

Artists:  A B C D E F G H I J K L M N O P Q R S T U V W X Y Z # 

Twenty Thousand Hearts Tabs (ver.1)

Eddie From Ohio Tabs
Rating:
5/5 (1 vote)
Hard to play? Try these video lessons and learn fast.
                

Capo 3

INTRO
e|-----------------|-----|-----------------|-----|
B|-------3---------|-----|-------3---------|-----|
G|-----------0-----|-----|-----------0-----|-----|
D|-----4---------4-|-----|-----2---------2-|-----|
A|-2---------------|-2---|-0---------------|-0---|
E|-----------------|-----|-----------------|-----|
.| 1   +   2   +   | 3 4 | 1   +   2   +   | 3 4 |

e|-----------0-----|-----|-----------0-----|-----|
B|-------3-------3-|-----|-------3-------3-|-----|
G|-----------------|-2---|-----------------|-0---|
D|-----0-----------|-----|-----0-----------|-----|
A|-----------------|-----|-----------------|-----|
E|-0h2-------------|-----|-3---------------|-----|
.| 1   +   2   +   | 3 4 | 1   +   2   +   | 3 4 |

e|-----------------|-----------------|-----------------|-----------------|
B|-------3---------|-------3---------|-------3---------|-------3---------|
G|-----------0-----|-----------2-----|-----------0-----|-----------2-----|
D|-----2---------2-|-----0---------0-|-----0---------0-|-----0---------0-|
A|-----------------|-----------------|-----------------|-----------------|
E|-0---------------|-2---------------|-3---------------|-2---------------|
.| 1   +   2   +   | 3   +   4   +   | 1   +   2   +   | 3   +   4   +   |

e|-----------------|-----------------|-----------0-----|-----|
B|-------3---------|-------3---------|-------3-------3-|-----|
G|-----------0-----|-----------2-----|-----------------|-0---|
D|-----2---------2-|-----0---------0-|-----0-----------|-----|
A|-----------------|-----------------|-----------------|-----|
E|-0---------------|-2---------------|-3---------------|-----|
.| 1   +   2   +   | 3   +   4   +   | 1   +   2   +   | 3 4 |

e|-----------0-----|-----|
B|-------3-------3-|-----|
G|-----------------|-0---|
D|-----0-----------|-----|
A|-----------------|-----|
E|-3---------------|-----|
.| 1   +   2   +   | 3 4 |


The verse is just the first two lines of the Intro played four times.  The chorus is a 
of the second part of the intro, but it's a little more complicated, so I've written it 
here:


There is

e|-----------------|-----------------|-----------------|-----------------|
B|-------3---------|-------3---------|-------3---------|-------3---------|
G|-----------0-----|-----------2-----|-----------0-----|-----------2-----|
D|-----2---------2-|-----0---------0-|-----0---------0-|-----0---------0-|
A|-----------------|-----------------|-----------------|-----------------|
E|-0---------------|-2---------------|-3---------------|-2---------------|
.| 1   +   2   +   | 3   +   4   +   | 1   +   2   +   | 3   +   4   +   |
   one          of   me                      One    of   you

e|-----------------|-----------------|-----------------|-------2p0-------|
B|-------3---------|-------3---------|-------3---------|------------3----|
G|-----------0-----|-----------2-----|-----------0-----|-----2---------2-|
D|-----2---------2-|-----0---------0-|-----0---------0-|-0---------------|
A|-----------------|-----------------|-----------------|-----------------|
E|-0---------------|-2---------------|-3---------------|-----------------|
.| 1   +   2   +   | 3   +   4   +   | 1   +   2   +   | 3   +   4   +   |
         Two    of   us           and  One    hundred    questions     and

e|-----------------|-----------------|
B|-------3---------|-------3---------|
G|-----------0-----|-----------2-----|
D|-----2---------2-|-----0---------0-|
A|-----------------|-----------------|
E|-0---------------|-2---------------|
.| 1   +   2   +   | 3   +   4   +   |
   two   thousand   reasons

e|-----------------|-----------------|-----|
B|-------3---------|-------3---------|-----|
G|-----------0-----|-----------0-----|-----|
D|-----0---------0-|-----4---------4-|-----|
A|-----------------|-2---------------|-2---|
E|-3---------------|-----------------|-----|
.| 1   +   2   +   | 3   +   4   +   | 1 2 |
   ten's  a  perfect number              We are

e|-----------------|-----------------|-----------------|-------2p0-------|
B|-------3---------|-------3---------|-------3---------|------------3----|
G|-----------0-----|-----------2-----|-----------0-----|-----2---------2-|
D|-----2---------2-|-----0---------0-|-----0---------0-|-0---------------|
A|-----------------|-----------------|-----------------|-----------------|
E|-0---------------|-2---------------|-3---------------|-----------------|
.| 1   +   2   +   | 3   +   4   +   | 1   +   2   +   | 3   +   4   +   |
         Twenty    thousand          hearts   full  of   hunger

e|-----------------|-----------------|
B|-------3---------|-------3---------|
G|-----------0-----|-----------2-----|
D|-----2---------2-|-----0---------0-|
A|-----------------|-----------------|
E|-0---------------|-2---------------|
.| 1   +   2   +   | 3   +   4   +   |
         Twenty    thousand

e|-----------0-----|-----|-----------0-----|-----|
B|-------3-------3-|-----|-------3-------3-|-----|
G|-----------------|-0---|-----------------|-0---|
D|-----0-----------|-----|-----0-----------|-----|
A|-----------------|-----|-----------------|-----|
E|-3---------------|-----|-3---------------|-----|
.| 1   +   2   +   | 3 4 | 1   +   2   +   | 3 4 |
 hearts

I find on one guitar it sounds best if you blur some of the notes with some strumming in 
- mess around with it and see what you like.

INTRO

VERSE
First we lived in India
In winter it rains there everyday
We were younger then
We were children in India
There were signs and people
We’d never understand
You said “Hold my hand”
And I held your hand

CHORUS
There is one of me
And one of you
Two of us
And one hundred questions
And two thousand reasons
But ten’s a perfect number
We are twenty thousand hearts full of hunger
Twenty thousand hearts

Then we’re dancing in Geneva
It’s New Year’s Eve
And all the Americans were there
They said, “It’s still last year in New York City.”
You said, “New York, where?”
I said, “New York City, its three thousand miles away.”
You said, “What’s a mile?”
I said, “It’s far away.”

[CHORUS]

Now you ask me to explain myself
And I tell you I need distance
You say, “To hell with distance, remember who you’re talking to.”
I say, “Closeness is too much for me.”
And dismiss you with a smile
You say, “Wish away your closeness, and imagine it’s a mile.”

[CHORUS]
            

comments powered by Disqus
↑ Back to top | Eddie From Ohio Tabs for Twenty Thousand Hearts. Lyrics for acoustic guitar and electric guitar. Tablatures and chords are parodies/interpretations of the original songs. You may use it for private study, scholarship, research or language learning purposes only