» » »

Eddie From Ohio, Santa Margarita Tabs (ver.1)

Artists:  A B C D E F G H I J K L M N O P Q R S T U V W X Y Z # 

Santa Margarita Tabs (ver.1)

Eddie From Ohio Tabs
 Rating:
4/5 (4 votes)
Santa Margarita lessons Tabs too difficult? Try these video lessons and learn fast
1
                ***************
***************

By Eddie From Ohio

Intro/Chorus/MainRiff: x2

Guitar 1
e|------0-------0-----0------0------0------0------0-----0-|
B|----0-------0-----0------0------0------0------0-----0---|
G|-13-----11------9-----4------8------6------4------9-----|
D|--------------------------------------------------------|
A|--------------------------------------------------------|
E|--------------------------------------------------------|
   A       E
e|-----0-7-----0-7-------0------0-------0-------|
B|---0-------0---------0------0-------0---------|
G|-9-------9---------8------6------4------9-----|
D|----------------------------------------------| 
A|----------------------------------------------|
E|----------------------------------------------|

Guitar 2 (behind guitar one)
   A       E
e|-0-------0-----------------------------------|
B|-2-------0-----------------------------------|
G|-2-------1-----------------------------------|
D|-2-------2-----------------------------------| 
A|-0-------2-----------------------------------|
E|---------0-----------------------------------|


Verses: (I think)
E E A E
E E Bsus Bsus

Before Chorus 
C#m  B  A 
C#m  B  A  E

Chorus is the same as the intro

-Adam Brunell
            
Submit corrections

comments powered by Disqus
↑ Back to top | Eddie From Ohio Tabs for Santa Margarita. Lyrics for acoustic guitar and electric guitar. 1 Tablatures and chords are parodies/interpretations of the original songs. You may use it for private study, scholarship, research or language learning purposes only