>
 >
Minnesota 1945

Minnesota 1945 Guitar Tabs

Eddie From Ohio - Minnesota 1945 chords, tabs, tablatures, lyrics

Guitar lessons | Add/correct | Request | Top 50 tabs Artists:  A B C D E F G H I J K L M N O P Q R S T U V W X Y Z 0-9

Minnesota 1945 Guitar Tabs – Eddie From Ohio

CD, Sheet music, Poster

Do you like Minnesota 1945? Share with your friends now
Tabs
**************
**************


Capo 6th fret

Intro:


e|----3----3--------------------3----3-----------------------3--||
B|----3----3--------3------3----3----3----------3--------3---3--||
G|----0----0------0------0------0----0--------0--------0-----0--||
D|--------------------------------------------------------------||
A|-----------0h2----2h3-------------------0h2-------------------||
E|-3------------------------3-----------3---------0h3------3----||


e|-----3--------------------3-------------||
B|-----3--------3------3----3-------3-----||
G|-----0------0------0------0-----2-2-----||
D|--------------------------------0-0-----||
A|---------0h2----2h3---------------------||
E|-----------------------3------3---------||

Verse:


e|----3----3--------------------3----3-----------------------3--||
B|----3----3--------3------3----3----3----------3--------3---3--||
G|----0----0------0------0------0----0--------0--------0-----0--||
D|--------------------------------------------------------------||
A|-----------0h2----2h3-------------------0h2-------------------||
E|-3------------------------3-----------3---------0h3------3----||

e|-----3--------------------3----3-----------------------3--||
B|-----3--------3------3----3----3----------3--------3---3--||
G|-----0------0------0------0----0--------0--------0-----0--||
D|----------------------------------------------------------||
A|-------0h2----2h3-------------------0h2-------------------||
E|----------------------3-----------3---------0h3------3----||


e|-----3--------------------3----3-----------------------3--------||
B|-----3--------3------3----3----3----------3--------3---3--x-x-3-||
G|-----0------0------0------0----0--------0--------0-----0--x-x-2-||
D|----------------------------------------------------------x-x-0-||
A|-------0h2----2h3-------------------0h2-------------------x-x---||
E|----------------------3-----------3---------0h3------3----------||

Riff After Second Verse:
   C             G    D          G    C           G    D          G
e|-------------------------------------------------------------------|
B|-------------------------3---------------------------------3-------|
G|---------0-----0----0h2-2--2-0-0------—---0-----0—---0h2-2---2-0---|
D|--0h2--2---2-0-0----0----------0----0h2-2---2-0-0----0-------------|
A|--3------------2---------------2----3-----------2------------------|
E|---------------3---------------3----------------3----------------3-|

Chorus:
Strum the chords played in the riff above twice then play
 
  Bm     D     G   C
e|-------------------3---------------------------------------||
B|-3-----3-----3-----3--------3------------------------------||
G|-4-----2-----0-----0--------2---------0—-then-go-to--------||
D|-4-----0-----0-----2--------0-----0h2-----intro/verse-riff-||
A|-2-----------2-----3---------------------------------------||
E|-------------3---------------------------------------------||
 All people kindness seen

That’s pretty much it
-Adam Brunell





Comments


Popular Eddie From Ohio tabs & chords
Bleecker To Broadway Tabs
Imagine Me Tabs
Independence Indiana Tabs
Mistress Snow And Mary Jane Green Tabs
Santa Margarita Tabs
Twenty Thousand Hearts Tabs


Song lyrics



↑ Back to top | Tablatures and chords are parodies/interpretations of the original songs. You may use it for private study, scholarship, research or language learning purposes only
© 2014 AZChords.com Contact us | Privacy policy | DMCA | Add/correct tabs | Request tabs | Top 50 tabs