» » »

Econoline Crush, The Devil You Know Tabs (ver.1)

Artists:  A B C D E F G H I J K L M N O P Q R S T U V W X Y Z # 

The Devil You Know Tabs (ver.1)

Econoline Crush Tabs
Rating:
0/5 (0 votes)
The Devil You Know lessons Tabs too difficult? Try these video lessons and learn fast
                
Intro A (Guitar 1)       Intro B (Guitar 2)
e-----------------------|-------------------------------
B-----------------------|-------------------------------
G-----------------------|-7-9-9-9-9-9-9-9-9-9-9---------
D-2-2-2-2-2-2-2-2-------|-------------------------------
A-2-2-2-2-2-2-2-2-0h2---|-------------------------------
E-0-0-0-0-0-0-0-0-----3-|-------------------------------

Verse A (Guitar 1) four times then:
e--------------------|----------------------------------
B--------------------|----------------------------------
G------(clean)-------|--------(distorted)---------------
D--------------------|----------------------------------
A-5h7-7-7-7-7-7-7-5--|-5h7-7-7-7-10-7-7-5h7-------------
E--------------------|-0---0-0-0--0-0-0-0---------------
("Everything is a mess...")

Chorus A (Guitar, 16 times each)  Chorus B (Guitar 2)
e--------------------------------|----------------------
B--------------------------------|-8^-8^-8^-8^-8^-8^-8^-
G---------12--13----------12--13-|----------------------
D-12--13---x---x--12--13---x---x-|----------------------
A--x---x--10--11---x---x--10--11-|----------------------
E-10--11----------10--11---------|----------------------
("Delicate love...")

Verse B (Guitar 2)
e-------------------------------------------------------
B-------------------------------------------------------
G-9-------9-------9-------9-------9-------9-------------
D-9-------9-------9-------9-------9-------9-------------
A-7-------7-------7-------7-------7-------7-------------
E-0-------0-------0-------0-------0-------0-------------

Bridge A (Guitar 1)
e-12-x-x-12-x-12-12-10/15-15-15-15----------------------
B--x-x-x--x-x--x--x--x--x--x--x--x--Three times then:---
G--9-x-x--9-x--9--9--7/12-12-12-12----------------------
D-------------------------------------------------------
A-------------------------------------------------------
E-------------------------------------------------------

(continued)
e-12-x-x-12-x-12-12-x-x-17-17-17-17-17------------------
B--x-x-x--x-x--x--x-x-x--x--x--x--x--x------------------
G--9-x-x--9-x--9--9-x-x-14-14-14-14-14------------------
D-------------------------------------------------------
A-------------------------------------------------------
E-------------------------------------------------------

Bridge B (Guitar 2)
e-------------------------------------------------------
B-12^--12^--12^--12^--12-12-12-12-12-12-12-12-----------
G----------------------------------------------9^---\5--
D-------------------------------------------------------
A-------------------------------------------------------
E-------------------------------------------------------

(continued)
e-12^--12^--12^--12^--12-12-12-12-12-12-12-12--12^------
B-------------------------------------------------------
G-------------------------------------------------------
D-------------------------------------------------------
A-------------------------------------------------------
E-------------------------------------------------------

Intro A, B
Verse A
Chorus A
Intro A, B
Verse A, B
Chorus A
Chorus A, B
Intro A, B
Bridge A
Bridge A, B
Chorus A
Chorus A, B
            
Submit corrections

comments powered by Disqus
↑ Back to top | Econoline Crush Tabs for The Devil You Know. Lyrics for acoustic guitar and electric guitar. Tablatures and chords are parodies/interpretations of the original songs. You may use it for private study, scholarship, research or language learning purposes only