» » »

Hollowman Tabs (ver.1)

Artists:  A B C D E F G H I J K L M N O P Q R S T U V W X Y Z # 

Hollowman Tabs (ver.1)

Econoline Crush
Rating:
0/5 (0 votes)

Tabs too difficult? Try these video lessons and learn fast.
                Hollowman by Econoline Crush


ok, a couple notes:
1. riff 4 is played through pretty much the whole thing
2. riff 5 is sort of hard to pick out and the song sounds
ok without it
3. the guitar work for the verses in this song is very quiet
(maybe palm muted)

ok without it.

Riff 1
E-----------------------------------
B-----------------------------------
G-----------------------------------
D-----------------------------------
A--0-0-0-0-0-0-0-0-3-3-3-3-5-5-5-5--
D--0-0-0-0-0-0-0-0-3-3-3-3-5-5-5-5--

Riff 2
E-------------------------------
B-------------------------------
G-------------------------------
D-------------------------------
A--0----3-0-3---5-6-5-6-5-3-3-0-
D--0----3-0-3---5-6-5-6-5-3-3-0-

Riff 3
E-------------------------------
B-------------------------------
G-------------------------------
D-------------------------------
A-----5---6--5--3-3-5-5-6-6-6---
D-0-0---0--0----3-3-5-5-6-6-6---

Riff 4
E-----------------------------------------------
B-----------------------------------------------
G--12~~~~~~~~~~~~~~~~~~~~~~~~~~~~~~~~~~~~-------
D-----------------------------------------------
A-----------------------------------------------
D-----------------------------------------------

Riff 5
E-----------------------------------------------
B-----------------------------------------------
G-----------------------------------------------
D------0-1--0--------------------------------------
A------0-1--0--------------------------------------
D--0-0-0-1--0----------------------------------------

Order

synth and riff 4
riff 1 x12
riff 2 x4
riff 3 x4
riff 1 x7
riff 2 x4
riff 3 x4
riff 5 x18
riff 2 x4
riff 3 x4

Lyrics

maybe i'm phoney, baby 
just like you
maybe i'm lonely and youre something to do
something to do
maybe i'm broken and I can't fixed
misunderstood, misguided, misfit
i'm it

oh, is there no way out
oh, is there no way out
oh, is there no way out
i am i am i am
hollowman
down again
hollowman
down again

it's the end of the world
all that we had
everything good
is now turning bad
now turning bad

maybe it's tragic
maybe it's ***
bitter and twisted
you make me feel sick
you make me feel sick

oh, is there no way out
oh, is there no way out
oh, is there no way out
i am i am i am
hollowman
down again
hollowman
down again

oh, is there no way out
oh, is there no way out
oh, is there no way out
i am i am i am
hollowman
down again
hollowman
down again
            
Tabs too difficult? Try these video lessons and learn fast.




comments powered by Disqus
↑ Back to top | Tablatures and chords are parodies/interpretations of the original songs. You may use it for private study, scholarship, research or language learning purposes only