» » »

Econoline Crush, Haven't Gone Away Tabs (ver.1)

Artists:  A B C D E F G H I J K L M N O P Q R S T U V W X Y Z # 

Haven't Gone Away Tabs (ver.1)

Econoline Crush Tabs
 Rating:
4/5 (4 votes)
Haven't Gone Away lessons Tabs too difficult? Try these video lessons and learn fast
1
                
Wow, this was pretty easy to do . . . Um, there's probably some mistakes
and maybe a part I missed cause my stereo only seems to play parts meant
for the left speaker, wierd eh?  I might resubmit another version, but
it's too late at night to really go over the song with a fine toothed 
comb.  (Consider yourself lucky that I'm adding lyrics.)

ICQ #9964990


First Do this:                                
E-----------------------------------------------------------------------
B-----------------------------------------------------------------------
G-----------------------------------------------------------------------
D---7-------------------------------------------------------------------
A---7-------------------------------------------------------------------
E---5-------------------------------------------------------------------
                                                                        

This comes in after a sec      
E-----------------------------
B---------8~~~~~~-------------
G-----------------------------
D-----------------------------
A-----------------------------
E-----------------------------
                                                 

This is a fill that is played over the A chord
E----------------3-----------------------5---3-------
B-----2---3---2---------------2---3---2--------------
G----------------------------------------------------
D----------------------------------------------------
A----------------------------------------------------
E----------------------------------------------------
                  
                       

Main Riff:                                                        
E-----------------------------------------------------------------------
B-----------------------------------------------------------------------
G-------------------5---------------------------------------------------
D---5---7---7---7-------7---7---5---7---7---7---5---7---7---7---5-------
A-----------------------------------------------------------------------
E-----------------------------------------------------------------------
                                                                        

(CONT)        
E-----------------------------------------------------------------------
B-----------------------------------------------------------------------
G---------------5---------------------------7---------------------------
D---7---7---7-------7---7---5---7---7---7-------------------------------
A-----------------------------------------------------------------------
E-----------------------------------------------------------------------
                                                                        

This part is about halfway through the song       
E-----------------------------------------------------------------------
B-----------------------------------------------------------------------
G-----------------------------------------------------------------------
D---x---x---x---7-------------------------------------------------------
A---x---x---x---7-------------------------------------------------------
E---x---x---x---5-------------------------------------------------------
                                 

    Play around with these as Natural Harmonics . . .                  
E-----------------------------------------------------------------------
B-----------------------------------------------------------------------
G-----------------------------------------------------------------------
D---5-------7-------5-------7-------5-------7-------3-------------------
A-----------------------------------------------------------------------
E-----------------------------------------------------------------------
                                                                        

This is the part at the end . . . kinda hard to pick out and there are
a couple more little solo type things but I can't quite get em.
(It's too late at night to go over fine details)                       
E-----------------------------------------------------------------------
B-----------------------------------------------------------------------
G-------8---7---7---5-------5-------------------------------------------
D-----------------------7-------7---7-----------------------------------
A-----------------------------------------------------------------------
E-----------------------------------------------------------------------
                                                                        



                     *******Lyrics********


I was born in misintention
and my future isn't fate
i was born to struggle in vain
girl you've seen the palace
put your lips on the gate
wished for more from the heavens above
love me more

sweet taste of cold revenge
sweet taste of desire
take me down to the water where it's warm and deep
take me down so I can feel peace
I am you, you did invent me
gave me promise and a name
played us all like we were fools
girl you've been indentured
put your lips on his ring
got a lot but never enough
hate me more

i havent gone away
            
Submit corrections

comments powered by Disqus
↑ Back to top | Econoline Crush Tabs for Haven't Gone Away. Lyrics for acoustic guitar and electric guitar. 1 Tablatures and chords are parodies/interpretations of the original songs. You may use it for private study, scholarship, research or language learning purposes only