» » »

Econoline Crush, Deeper Tabs (ver.1)

Artists:  A B C D E F G H I J K L M N O P Q R S T U V W X Y Z # 

Deeper Tabs (ver.1)

Econoline Crush Tabs
 Rating:
4/5 (4 votes)
Deeper lessons Tabs too difficult? Try these video lessons and learn fast
1
                
Another tab by me.  The only thing missing from this
tab is that solo part just before the second verse.
or ICQ (9964990).

Riff 1
E-----------------------------------------------------------------
B-----------------------------------------------------------------
G-----------------------------------------------------------------
D-0-0-0-0-0-0-0-0-0-0-0-0-0-0-12\-8-8-8-8-8-8-8-8-8-8-8-8-8-8-8-8-
A-0-0-0-0-0-0-0-0-0-0-0-0-0-0-0---8-8-8-8-8-8-8-8-8-8-8-8-8-8-8-8-
D-0-0-0-0-0-0-0-0-0-0-0-0-0-0-0---8-8-8-8-8-8-8-8-8-8-8-8-8-8-8-8-

Riff 2

E---------------------
B---------------------
G--7-5-8-7-10-7-8-7-5-
D---------------------
A---------------------
D---------------------

Riff 3
E-------------------------------
B-------------------------------
G---------0-----0------0------0-
D-------5-----5------5------5---
A-----7-----7------6------6-----
D-------------------------------
        
                                let ring
Riff 4                       |------------------|
E-0--0--0-0---0--3-3---3-3-3--0------------------
B-1--1--1-1---1--0-0---0-0-0--0------------------
G-0--0--0-0---0--0-0---0-0-0--0------------------
D-2--2--2-2---2--0-0---0-0-0--2------------------
A-3--3--3-3---3--2-2---2-2-2--2------------------
E----------------3-3---3-3-3--0------------------


Riff 5
E--------------
B--------------
G---7---7--5---
D-7---7--------
A-0------------
D--------------


Order

Riff 1 (Riff 2)     0:07
Riff 3              0:43
Riff 4              1:00
Riff 5              1:36
Riff 1 (Riff 2)     1:45
Riff 3              2:20
Riff 4              2:38

Lyrics

Sold out the truth
repackaged the lies
polluted our souls
and took the dreams from our lives

don't let them beat you
don't let them win
hold on
hold on
all my love is never ending

coming over you
make it all right
carry you through
then the pain will subside

don't let them beat you
don't let them win
hold on
hold on
all my love is never ending
            
Submit corrections

comments powered by Disqus
↑ Back to top | Econoline Crush Tabs for Deeper. Lyrics for acoustic guitar and electric guitar. 1 Tablatures and chords are parodies/interpretations of the original songs. You may use it for private study, scholarship, research or language learning purposes only