» » »

Blunt Tabs (ver.1)

Artists:  A B C D E F G H I J K L M N O P Q R S T U V W X Y Z # 

Blunt Tabs (ver.1)

Econoline Crush
Rating:
0/5 (0 votes)

Hard to play? Try these video lessons and learn fast.
                

Drop D tuning

Part 1
|-----------
|-----------
|-----------
|----------- 
|--0---6-0--
|--0---6-0--
     6x

Part 2
|----------------
|----------------
|----------------
|----------------
|--0---3-0--6-6--
|--0---3-0--6-6--
    6x   (  4x  )

Part 3
|----------
|----------
|----------
|---------- 
|-----3-5--
|--0-------
    6x

Part 4
|------------------
|------------------
|------------------
|------------------ 
|--0--3--5--6-5-3--
|--0--3--5--6-5-3--
 32x  hold 4x

Part 5
|---------------
|---------------
|---------------
|---------------
|--0--3-5-3--3--
|--0--3-5-3-----


Lyrics

You say you're gonna kick it today
crawl out from all your dirty wars
and make your escape
You say you're going to face the rage
the cage, the prison you're in

Hypocrisy and lies I am
terrified inside I am
Oh I can feel nothing
Dependant on my acts of sin
Swimming in this decadence
Oh I can feel nothing

Oh you'll never let me escape
I am your prisoner
Something's gotta take me away
I am a prisoner

Hypocrisy and lies I am
terrified inside I am
Oh I can feel nothing
Dependent on my acts of sin
Swimming in this decadence
Oh I can feel nothing
Can't take it for another day
All the contradicitions, the indifference in me
Today I'm gonna face the rage, the cage
the prison I'm in

Hypocrisy and lies I am
terrified inside I am
Oh I can feel nothing
Dependant on my acts of sin
Swimming in this decadence
Oh I can feel nothing
            
Hard to play? Try these video lessons and learn fast. | Correct




comments powered by Disqus
↑ Back to top | Tablatures and chords are parodies/interpretations of the original songs. You may use it for private study, scholarship, research or language learning purposes only