» » »

Econoline Crush, Affliction Tabs (ver.1)

Artists:  A B C D E F G H I J K L M N O P Q R S T U V W X Y Z # 

Affliction Tabs (ver.1)

Econoline Crush Tabs
 Rating:
4/5 (4 votes)
Affliction lessons Tabs too difficult? Try these video lessons and learn fast
1
                Affliction by Econoline Crush

There's only a little bit of Guitar in this song

I think this is at about 2:30 or something

R |-----------------|-----------------|-----------------|-----------------|
H |-----------------|-----------------|-----------------|-----------------|
Y |-5-5-5-5-5-5-5-5-|-5-5-5-5-5-5-5-5-|-----------------|-----------------|
T |-5-5-5-5-5-5-5-5-|-5-5-5-5-5-5-5-5-|-6-6-6-6-6-6-6-6-|-1-1-1-1-1-1-1-1-|
H |-3-3-3-3-3-3-3-3-|-3-3-3-3-3-3-3-3-|-6-6-6-6-6-6-6-6-|-1-1-1-1-1-1-1-1-|
M |-----------------|-----------------|-6-6-6-6-6-6-6-6-|-1-1-1-1-1-1-1-1-|
  |                 |                 |                 |                 |
  |-----------------|-----------------|-----------------|-----------------|
L |-----------------|-----------------|-9-9-9-9-9-9-9-9-|-8-8-8-8-8-8-8-8-|
E |-5---5---5---5---|-5---5---7---8---|-----------------|-----------------|
A |-----------------|-----------------|-6-6-6-6-6-6-6-6-|-5-5-5-5-5-5-5-5-|
D |-3---3---3---3---|-3---3---5---6---|-----------------|-----------------|
  |-----------------|-----------------|-----------------|-----------------|
            
Submit corrections

comments powered by Disqus
↑ Back to top | Econoline Crush Tabs for Affliction. Lyrics for acoustic guitar and electric guitar. 1 Tablatures and chords are parodies/interpretations of the original songs. You may use it for private study, scholarship, research or language learning purposes only