» » »

Suckerpunch Tabs (ver.1)

Artists:  A B C D E F G H I J K L M N O P Q R S T U V W X Y Z # 

Suckerpunch Tabs (ver.1)

Echobrain
Rating:
0/5 (0 votes)

Hard to play? Try these video lessons and learn fast.
                #------------------------------------------------------------------------------##

                                   SUCKERPUNCH
                            As recorded by Echobrain
                         (From the 2002 Album ECHOBRAIN)




Speed: 60 bpm

Gtr I (E A D G B E) - 'Clean Sound'
Gtr II (E A D G B E) - 'Distored'


Main riff:

    Am                             F#
   4/4
    Gtr I
||-------------------------------|--------------------------2---||
||o-1-1--0-1-1--0-1-1--0-1-0-----|------------------------2----o||
||---------------------------2-0-|-3-3--3-3-3--3-3-3--3-3-------||
||-------------------------------|------------------------------||
||o------------------------------|-----------------------------o||
||-------------------------------|------------------------------||


    Am                             F#
                                                                 3x
||-------------------------------|--------------------------2----||
||o-1-1--0-1-1--0-1-1--0-1-0-----|------------------------2-----o||
||---------------------------2-0-|-3-3--3-3-3--3-3-3--3-3--------||
||-------------------------------|-------------------------------||
||o------------------------------|------------------------------o||
||-------------------------------|-------------------------------||


  Am                             F#              F
 4/4
|------------------------------|-----------------1--1---0----|
|-1-1--0-1-1--0-1-1--0-1-0-----|-----------------1--1-0------|
|--------------------------2-0-|-3-3--3-3-3--3-3-2--2--------|
|------------------------------|-----------------3--3--------|
|------------------------------|-----------------3--3--------|
|------------------------------|-----------------1--1--------|


  Am                             G
 4/4
|----------0------0------------|-----------------3-------------|
|--------1----3s5---5s3--------|----------3--3s5---5s3---------|
|------2----------------4----4-|--------4--------------4----4--|
|----2---------------------5---|------5-------------------5----|
|-0----------------------------|----5--------------------------|
|------------------------------|-3-----------------------------|


  Am                               G    E
|-----------0--3s5-3-------------|-3----0----|
|-0h1-----1----------5b7r7-3---3-|-3----0----|
|-----2----------------------4---|-4----1----|
|-------2------------------------|-5----2----|
|--------------------------------|-5----2----|
|--------------------------------|-3----0----|


  Am                             F#
 4/4
|------------------------------|--------------------------2---|
|-1-1--0-1-1--0-1-1--0-1-0-----|------------------------2-----|
|--------------------------2-0-|-3-3--3-3-3--3-3-3--3-3-------|
|------------------------------|------------------------------|
|------------------------------|------------------------------|
|------------------------------|------------------------------|


  Am                             F#              F
 4/4
|------------------------------|-----------------1--1---1----|
|-1-1--0-1-1--0-1-1--0-1-0-----|-----------------1--1-1------|
|--------------------------2-0-|-3-3--3-3-3--3-3-2--2--------|
|------------------------------|-----------------3--3--------|
|------------------------------|-----------------3--3--------|
|------------------------------|-----------------1--1--------|


  Am                             F#
 4/4
|------------------------------|--------------------------2---|
|-1-1--0-1-1--0-1-1--0-1-0-----|------------------------2-----|
|--------------------------2-0-|-3-3--3-3-3--3-3-3--3-3-------|
|------------------------------|------------------------------|
|------------------------------|------------------------------|
|------------------------------|------------------------------|


  Am                             F#
 4/4
|------------------------------|-----------------1--1-1-1----|
|-1-1--0-1-1--0-1-1--0-1-0-----|-----------------1--1-1-1----|
|--------------------------2-0-|-3-3--3-3-3--3-3-2--2-2-2----|
|------------------------------|-----------------3--3-3-3----|
|------------------------------|-----------------3--3-3-3----|
|------------------------------|-----------------1--1-1-1----|


    Am                 G
   4/4
    Gtr I
    | |||||||||||||||  | |||||||||||||||
    / ///////////////  / ///////////////

||--5----------------|-3-----------------||
||o-5----------------|-3----------------o||
||--5----------------|-4-----------------||
||--7----------------|-5-----------------||
||o-7----------------|-5----------------o||
||--5----------------|-3-----------------||


  F                  G
  | |||||||||||||||  | |||||||||||||||
  / ///////////////  / ///////////////

|-1----------------|-3------------------|
|-1----------------|-3------------------|
|-2----------------|-4------------------|
|-3----------------|-5------------------|
|-3----------------|-5------------------|
|-1----------------|-3------------------|


  F                  G    E  Am
  | |||||||||||||||
  / ///////////////

                     Gtr I
|-1----------------|-3----0--5--5----|
|-1----------------|-3----0--5--5----|
|-2----------------|-4----1--5--5----|
|-3----------------|-5----2--7--7----|
|-3----------------|-5----2--7--7----|
|-1----------------|-3----0--5--5----|


     G    F    G    Am   G      Am
   4/4
                                               6x
||---3--x-1--1-3--x-5--5-3-|--x-5-----5--5-----||
||o--3--x-1--1-3--x-5--5-3-|--x-5-----5--5----o||
||---4--x-2--2-4--x-5--5-4-|--x-5-----5--5-----||
||---5--x-3--3-5--x-7--7-5-|--x-7-----7--7-----||
||o--5--x-3--3-5--x-7--7-5-|--x-7-----7--7----o||
||---3--x-1--1-3--x-5--5-3-|--x-5-----5--5-----||


    G                  Am
   4/4
    Gtr I
    | |||||||||||||||  | |||||||||||||||
    / ///////////////  / ///////////////

||--3----------------|-5-----------------||
||o-3----------------|-5----------------o||
||--4----------------|-5-----------------||
||--5----------------|-7-----------------||
||o-5----------------|-7----------------o||
||--3----------------|-5-----------------||


  F                  G
  | |||||||||||||||  | |||||||||||||||
  / ///////////////  / ///////////////

|-1----------------|-3------------------|
|-1----------------|--------------------|
|-2----------------|-4------------------|
|-3----------------|-5------------------|
|-3----------------|-5------------------|
|-1----------------|-3------------------|


  F                  G    E  Am
  | |||||||||||||||
  / ///////////////

                     Gtr I
|-1----------------|-3----0--5--5----|
|-1----------------|-3----0--5--5----|
|-2----------------|-4----1--5--5----|
|-3----------------|-5----2--7--7----|
|-3----------------|-5----2--7--7----|
|-1----------------|-3----0--5--5----|


     G    F    G    Am   G      Am
   4/4
                                               5x
||---3--x-1--1-3--x-5--5-3-|--x-5-----5--5-----||
||o--3--x-1--1-3--x-5--5-3-|--x-5-----5--5----o||
||---4--x-2--2-4--x-5--5-4-|--x-5-----5--5-----||
||---5--x-3--3-5--x-7--7-5-|--x-7-----7--7-----||
||o--5--x-3--3-5--x-7--7-5-|--x-7-----7--7----o||
||---3--x-1--1-3--x-5--5-3-|--x-5-----5--5-----||


|--3--x-1--1-3--x-5--5-3----|
|--3--x-1--1-3--x-5--5-3----|
|--4--x-2--2-4--x-5--5-4----|
|--5--x-3--3-5--x-7--7-5----|
|--5--x-3--3-5--x-7--7-5----|
|--3--x-1--1-3--x-5--5-3----|


    G5A5       G5A5    G5A5G5   F#5
   4/4
    Gtr II
                                                          11x
||----------------------------|-----------0----------------||
||o---------------------------|-------------0-------------o||
||----------------------------|---------------3------------||
||--5-7-7-7-7--5-7-7-7-5-7-5--|-4-4-4-4---------4-4-4------||
||o-5-7-7-7-7--5-7-7-7-5-7-5--|-4-4-4-4---------4-4-4-----o||
||--3-5-5-5-5--3-5-5-5-3-5-3--|-2-2-2-2-2-------2-2-2------||


  G5A5
|--------------||
|--------------||
|--------------||
|-5-7-7-7-7----||
|-5-7-7-7-7----||
|-3-5-5-5-5----||


Solo: (Not exact but close...)

 4/4
        Gtr II
|--------------|-------------------------|--------------------------|
|--------------|-------------------------|-------------------5------|
|-------9h12p9-|-9h12p9-12p9h12p9\-7b9---|-(7)--7b9-7b9--7b9-7b9----|
|--------------|-------------------------|--------------------------|
|--------------|-------------------------|--------------------------|
|--------------|-------------------------|--------------------------|


|-------------------------------|------------------------------------|
|-------------------------------|------------------------------------|
|-5-7p5-------------------------|-------5-7-7b9r7p5-7-5h7p5-5-7-5----|
|-------7-5---------------------|---5-7------------------------------|
|-----------8-7-5-----------3s5-|-7----------------------------------|
|-----------------8-7-5-5h7-----|------------------------------------|


|------------------------------|----------------------------------------|
|-----8-----8-----8-8s10-10s13-|-------13----13----13-------13----13----|
|-7s9---7s9---7s9--------------|-14-14----14----14----14-14----14-------|
|------------------------------|----------------------------------------|
|------------------------------|----------------------------------------|
|------------------------------|----------------------------------------|


|----------------------------------------------------|
|-15b17-15pb17r15p13-15-15pb17r15p13-15-15b18--------|
|----------------------------------------------10b12-|
|----------------------------------------------------|
|----------------------------------------------------|
|----------------------------------------------------|


|--------------------------------------------------------|
|--------------------------------------------------------|
|-12p10p9-9b10-12p10p9h10-12p10p9h10-7-7-9-10p9p7--------|
|-------------------------------------------------9-5\---|
|--------------------------------------------------------|
|--------------------------------------------------------|


Lyrics:

It's a wonder love everyone that you take
It's a modern one every one that you take
A good intent but you now what?  You're playing with fire
What you want you just take and you take it too far

And now you' ve gone to collect a new lamb
I may be wrong but I know that I am
With every sucker you keep up your act
I hope you wake in a cold sweat when thinking of past

I've found these days I hold the reins
Grown from my mistake we're all the same 
Back home where our yesterdays are gone

You Shouldn't have gone you know it was temptaion
I guess it's all in my head you'd rather stay than stray home
And you know it's time to give yourselfe to prosper
Why'd you trade me for a day of laughter?

You've caused my pain for twenty days
lost so much I say today
My brain so aches and my blood is pain
When you break my heart for the day


Tablature Legend
----------------
 h   - hammer-on
 p   - pull-off
 b   - bend
 pb  - pre-bend
 r   - bend release (if no number after the r, then release immediately)
 /\  - slide into or out of (from/to "nowhere")
 s   - legato slide (strike first note and slide to second note)
 x   - represents muted slash (muffled strings)

Misc Legend
-----------
 |  - bar
||  - double bar
||o - repeat start
o|| - repeat end
*|  - double bar (ending)



***************************************************************************************
***************************************************************************************
            
Hard to play? Try these video lessons and learn fast. | Correct




comments powered by Disqus
↑ Back to top | Tablatures and chords are parodies/interpretations of the original songs. You may use it for private study, scholarship, research or language learning purposes only