» » »

Cryin Shame Bass tabs (ver.1)

Artists:  A B C D E F G H I J K L M N O P Q R S T U V W X Y Z # 

Cryin Shame Bass tabs (ver.1)

Echobrain
Rating:
0/5 (0 votes)

Tabs too difficult? Try these video lessons and learn fast.
                My first tab, I think it's right.  Probably not.  Bah.

Verse 1
|----------------------------------|
|---222----------------------------|
|------11111111110000001111111111--|
|000-------------------------------|

Verse 2
|----------------------------------|
|---222-------------------------0--|
|------1111111111000000111111012---|
|000-------------------------------|

Verse 3
|----------------------|
|---222----------------|
|------11111111110~----|
|000-------------------|

Verse 4
|------------------------------------------|
|------------------------2-2-2-2-2-2-2-2---|
|---2221111111111000000-0-0-0-0-0-0-0-0----|
|000---------------------------------------|

Verse 5
|------------------------------------|
|---222----------------------2-0-----|
|------1111111111000000000000----2-1-|
|000---------------------------------|

Riff
|---------------------|------------------------|
|---------------------|------------------------|
|-7-7-6--6-5--5-4--4-3|7-7-6--6-5--5-6--6-6----|
|--0----0----0----0---|-0----0----0----0-------|

|---------------------|-----------------------|
|---------------------|-----------------------|
|-7-7-6--6-5--5-6--6-6|7-7-6--6-7--7-9--9-9-7-|
|--0----0----0----0---|-0----0----0-----------|

Order:
Verse 1
Verse 2
Verse 1
Verse 3
Verse 1
Verse 2
Verse 4
Verse 1
Verse 4
Verse 1
Verse 4
Verse 1 X 2
Verse 2
Verse 1
Verse 3
Verse 4
Verse 1
Verse 4
Verse 1
Verse 4
Verse 1
Verse 4
Verse 1 X 2
Verse 2
Verse 1
Verse 5
Verse 1 X 10
Riff X 2
Verse 1 X 8
Verse 2
1st bar of riff - let ring out
            
Tabs too difficult? Try these video lessons and learn fast.




comments powered by Disqus
↑ Back to top | Tablatures and chords are parodies/interpretations of the original songs. You may use it for private study, scholarship, research or language learning purposes only