» » »

Echobrain, Colder World Bass tabs (ver.1)

Artists:  A B C D E F G H I J K L M N O P Q R S T U V W X Y Z # 

Colder World Bass tabs (ver.1)

Echobrain Tabs
Rating:
0/5 (0 votes)
Colder World lessons Tabs too difficult? Try these video lessons and learn fast
                Echobrain “Colder World” 
With Jason Newsted on bass!



    Riff 1 x3                      1,2		       3rd time      
G|| ----------------|-----------------||----------------|--------|
D||*----------------|-----------------||----------------|--------|
A||*5-5-5-5-5-5-5-5-|-----------------||----------------|--------|
E|| ----------------|-3-3-3-3-3-3-3-3-||--3-3--3-3--3-3-|3-3-3-5-|

   Riff 2 x3					      1,2
G||----------------|----------------|-----------------|-----------------||
D||----------------|----------------|-----------------|----------------*||
A||-2-2-2-2-2-2-2-2|----------------|-2/7-7-7-7-7-7-7-|-5-5-5-5-5-5-5-5*||
E||----------------|-2-2-2-2-2-2-2-2|-----------------|-----------------||

            3rd time
G|----------------|
D|----------------|
A|-5-5-5-5-5-4----|
E|-------------7-5|

riff 1 x6 (with variations at end of measures)

Fill
G|--------------------|
D|--------------------|
A|--------------------|
E|-3-3--3-3--3-3--3-3-|

             x4	           x3	          x1		    x4
G||-------------|----------------------|------------------------|------------------||
D||-------------|----------------------|------------------------|------------------||
A||-----5-------|-222222-1-0-----------|-222222-1-0-------------|-----5------------||
E||-0—3---5---5-|-------------3-0-3-0--|------------3-0-3-0-12\-|-0—3---5---5-532--||
            

comments powered by Disqus
↑ Back to top | Echobrain Bass for Colder World. Lyrics for acoustic guitar and electric guitar. Tablatures and chords are parodies/interpretations of the original songs. You may use it for private study, scholarship, research or language learning purposes only