» » »

Echobelly, Dark Therapy Accurate Tabs (ver.1)

Artists:  A B C D E F G H I J K L M N O P Q R S T U V W X Y Z # 

Dark Therapy Accurate Tabs (ver.1)

Echobelly Tabs
Rating:
0/5 (0 votes)
Dark Therapy Accurate lessons Tabs too difficult? Try these video lessons and learn fast
                

After having used guitar tab universe for a number of years, I was sorely
disappointed to find that no-one had done a decent job of tabbing this great song, so Ive done it myself!

Jimmy

    Bm                               A                            E 	
		
E-------------------------------------------------------------------------------
A---------2---0-h-2----2----2----0---2---2---2---2---2---2-h-3----0----0--------
B---------3---3---3----3----3----0---2---2---2---2---2---2--------0----0--------
G---------4---4---4----4----4----0---2---2---2---2---2---2--------1----1--------
D----4----4---4---4----4----4--------0---0---0---0---0---0--------2----2--------
A----2----2---0---0----2----2-------------------------------------2----2--------
E-------------------------------------------------------------------------------

	
E-------------------------------------------------------------------------------
A---0-------0---0---0-----0---0---0---------------0-----------------------------
B---0-------0---0---0-----0---0---0---------------3-----------------------------
G---1-h-2---2---2---2-----1---1---1---------------1-----------------------------
D---2-------2---2---2-----2---2---2---------------2-----------------------------
A---2-------2---2---2-----2---2---2---------------2-----------------------------
E-------------------------------------------------------------------------------

And thats basically it! During the chorus add B5VII A5V and E to pad out the sound. 
Listen to the record for the timing. Below is the lead guitar lines present during the song. 
A lot of it is very lo-fi and very difficult to hear! Ive tabbed what I could make out. 
Vibrate the notes to give em  style : )

Intro lead

E---------------------------------------------------7---------------------------
A---------------------------------------------7/hb-----rb----5~~~~~~~-----------
B-------------------------------------------------------------------------------
G-------------------------------------------------------------------------------
D--(4)--4/\2~~~~~~~~~-----------------------------------------------------------
A--------------------(5)--3-----------------------------------------------------
E------------------------------5~~~~~~~-----------------------------------------

E---------------------5p-4h-5h--7-----5p-4--------------------------------------
A-----4---------------------------------------7/\7----------7-------------------
B-----7/\/\~~~~~---------------------------------------7/hb----rb---4-sl-2------
G-------------------------------------------------------------------------------
D-------------------------------------------------------------------------------
A-------------------------------------------------------------------------------
E-------------------------------------------------------------------------------









Outro lead

E-------------------------------------------------------------------------------
A?17~~17~~17~~17~~17~~17~~17~~17~~17~~%-----14^#^#-----------------------------
B--------------------------------------------------16---------------------------
G-----------------------------------------------------(16)-14--14-14-12-14------
D-------------------------------------------------------------------------------
A-------------------------------------------------------------------------------
E-------------------------------------------------------------------------------


E---------------------------------9--9-sl-10-sl-9-sl-7--------------------------
A----------------------5------------------------------------5-sl-3-sl-2-sl-5-~~~
B----------------------7/\5-----------------------------------------------------
G---14-14-14-12-14-----------7--------------------------------------------------
D-------------------------------------------------------------------------------
A-------------------------------------------------------------------------------
E-------------------------------------------------------------------------------

let ring                                                      chorus & fade  
E-------------------------------------------------------------------------------
A-------------------------------------------------------------------------------
B-------------------------------------------------------------------------------
G--------7------(7)--7--7-~~~~--------7------(6)--6--6-----------7------9~~9~~9~
D--sl-9-----9-------------------sl-9-----9----------------sl--9-----9-----------
A-------------------------------------------------------------------------------
E-------------------------------------------------------------------------------

KEY

(5) = FULL PREBEND / GHOST NOTE

e.g

(5) 5   Pre-bend 5th fret a full step and release down. 
 
h = HAMMER ON
p = PULL OFF
sl = SLIDE
/ = FULL BEND UP
\ = FULL BEND RELEASE
^ = HALF BEND UP
~ = VIBRATO
# = HALF BEND RELEASE
hb = HOLD FULL BEND
rb = RELEASE FULL BEND
% = REPEAT AS NECCESARY
            

comments powered by Disqus
↑ Back to top | Echobelly Tabs for Dark Therapy Accurate. Lyrics for acoustic guitar and electric guitar. Tablatures and chords are parodies/interpretations of the original songs. You may use it for private study, scholarship, research or language learning purposes only