» » »

Killing Moon Bass tabs (ver.1)

Artists:  A B C D E F G H I J K L M N O P Q R S T U V W X Y Z # 

Killing Moon Bass tabs (ver.1)

Echo And The Bunnymen
Rating:
4/5 (1 vote)

Hard to play? Try these video lessons and learn fast.
                -------------------------------------------------------------------------------
-------------------------------------------------------------------------------


Tuning: G D A E

Main riff:

G|----------------------------------------|
D|-------------------------5-5--------5-5-|
A|-5--7-7--5--7-7--5---3-3-----5--3-3-----|
E|----------------------------------------|

G|-----------------------------|
D|-----------------------------|
A|---------------3-3--3-3-3--3-|
E|-3-3--3-3-3--3---------------|

G|-------------------------------------------------------|
D|-------------------------------------------------------|
A|-3/14-14-14-14-14-14-14-14--14-12-12-12-12-12-12-12-12-|
E|-------------------------------------------------------|

G|--------------------------------|
D|--------------------------------|
A|-10-10-10-10---8-8-8-8-8-8-8-8--|
E|--------------------------------|




| /  slide up
| \  slide down
| h  hammer-on
| p  pull-off
| ~  vibrato
| +  harmonic
| x  Mute note
===============================================================================
            
Hard to play? Try these video lessons and learn fast. | Correct




comments powered by Disqus
↑ Back to top | Tablatures and chords are parodies/interpretations of the original songs. You may use it for private study, scholarship, research or language learning purposes only