» » »

Echo And The Bunnymen, Supermellow Man Bass tabs (ver.1)

Artists:  A B C D E F G H I J K L M N O P Q R S T U V W X Y Z # 

Supermellow Man Bass tabs (ver.1)

Echo And The Bunnymen Tabs
 Rating:
4/5 (4 votes)
Supermellow Man lessons Tabs too difficult? Try these video lessons and learn fast
                Super Mellow Man
By Echo & The Bunnymen

Intro/Verse 

|-------5-7-5-------|           |-----4---5-4-5-4---|
|-----7-------7-5-7-|  x3       |-5-5---5---------5-|
|-5-5---------------|  and then |-------------------|
|-------------------|           |-------------------|

Chorus

|-------------------|------------------|
|-------------------|------------------|
|-3--3-3---5--5-5-5-|-3-3-----5--5-5-5-|
|--------3----------|-----3-3----------|

|------------------|--------------------|
|------------------|--------------------|
|-3-3-----5--5-5-5-|-3--3-3-3-----------|
|-----3-3----------|----------3-3-3-3-3-|

Bridge

|--------------------------|
|-------5-3-2--------------|
|---2-5-------5-5-5-5------|
|-5-------------------5----|

|---------------------------|
|---------5-3-2-------------|
|-----2-5-------5-7-5h7-----|
|-3-5-------------------3-5-|
            
Submit corrections

comments powered by Disqus
↑ Back to top | Echo And The Bunnymen Bass for Supermellow Man. Lyrics for acoustic guitar and electric guitar. Tablatures and chords are parodies/interpretations of the original songs. You may use it for private study, scholarship, research or language learning purposes only