>
 >
In The Margins

In The Margins Bass Tabs

Echo And The Bunnymen - In The Margins chords, tabs, tablatures, lyrics

Guitar lessons | Add/correct | Request | Top 50 tabs Artists:  A B C D E F G H I J K L M N O P Q R S T U V W X Y Z 0-9

In The Margins Bass Tabs – Echo And The Bunnymen

CD, Sheet music, Poster

Do you like In The Margins? Share with your friends now
Bass Tabs
-------------------------------------------------------------------------------
-------------------------------------------------------------------------------


Tuning: G D A E

Intro And Verse 1:

G|------------------------------------------------------------------------|\-||
D|-6-6-------6------6-6-------6-------9-9-------9-------9-9-------9----------||
A|------6--8---6--8------6--8---6--8------9--11---9--11-----9--11---9--11----||
E|------------------------------------------------------------------------|| ||x3

G|---------------------------------------------------------------------------||
D|-7-7-------7------7-7-------7-------6-6------6------6-6------6-------------||
A|------7--9---7--9------7--9---7--9------6--8---6--8-----6--8---6--8--------||
E|---------------------------------------------------------------------------||

 Verse 1 end:
G|------------------------------------------------------------------------|
D|-6-6-------6------6-6-------6-------9-9-------9-------9-9-------9-------|
A|------6--8---6--8------6--8---6--8------9--11---9--11-----9--11---9--11-|
E|------------------------------------------------------------------------|

G|------------------------------------------------------------------------|
D|-7-7-------7------7-7-------7-------6-6------6------6-6-----------------|
A|------7--9---7--9------7--9---7--9------6--8---6--8-------4---2---0-----|
E|------------------------------------------------------------------------|

  Chorus:
G|--------------------------------------------------------------------|
D|-2-2-------2------2-2-------2---------------------------------------|
A|------2--4---2--4------2--4---2--4--2-2------2------2-2------2------|
E|----------------------------------------2--4---2--4-----2--4---2--4-|

G|---------------------------------------------------------------------|
D|------------------------------------2-2-------2------2---------------|
A|----------------------------------------2---4---2--4-----------2-4-5-|
E|-5-5--0--2-5-0--2-5-5--0--2-5-0--2---------------------0-2-4-5-------|

G|----------------------------------------------------4-4-2-2-1-1-----|
D|-2-2-------2------2-2-------2-----------------------------------4-4-|
A|------2--4---2--4------2--4---2--4--2-2------2----------------------|
E|----------------------------------------2--4---2--4-----------------|

G|--------------------------------------------------------------------|
D|------------------------------------2-2------2------2-2------2------|
A|----------------------------------------2--4---2--4-----2--4---2--4-|
E|-5-5--0--2-5-0--2-5-5--0--2-5-0--2----------------------------------|

 Verse 2:

G|------------------------------------------------------------------------|
D|-6-6-------6------6-6-------6-------9-9-------9-------9-9-------9-------|
A|------6--8---6--8------6--8---6--8------9--11---9--11-----9--11---9--11-|
E|------------------------------------------------------------------------|

G|------------------------------------------------------------------------|
D|-7-7-------7------7-7-------7-------6-6------6------6-6------6----------|
A|------7--9---7--9------7--9---7--9------6--8---6--8-----6--8---6--8-----|
E|------------------------------------------------------------------------|

 verse 2 End:

G|------------------------------------------------------------------------|
D|-6-6-------6------6-6-------6-------9-9-------9-------9-9-------9-------|
A|------6--8---6--8------6--8---6--8------9--11---9--11-----9--11---9--11-|
E|------------------------------------------------------------------------|

G|------------------------------------------------------------------------|
D|-7-7-------7------7-7-------7-------6-6------6------6-6-----------------|
A|------7--9---7--9------7--9---7--9------6--8---6--8-------4---2---0-----|
E|------------------------------------------------------------------------|

 Chorus 2:

G|--------------------------------------------------------------------|
D|-2-2-------2------2-2-------2---------------------------------------|
A|------2--4---2--4------2--4---2--4--2-2------2------2-2------2------|
E|----------------------------------------2--4---2--4-----2--4---2--4-|

G|---------------------------------------------------------------------|
D|------------------------------------2-2-------2------2---------------|
A|----------------------------------------2---4---2--4-----------2-4-5-|
E|-5-5--0--2-5-0--2-5-5--0--2-5-0--2---------------------0-2-4-5-------|

G|----------------------------------------------------4-4-2-2-1-1-----|
D|-2-2-------2------2-2-------2-----------------------------------4-4-|
A|------2--4---2--4------2--4---2--4--2-2------2----------------------|
E|----------------------------------------2--4---2--4-----------------|

G|--------------------------------------------------------------------|
D|------------------------------------2-2------2------2---------------|
A|----------------------------------------2--4---2--4-----------------|
E|-5-5--0--2-5-0--2-5-5--0--2-5-0--2----------------------------------|

 Break:

G|---------------------------------------------------------------------------|
D|----5--7--4-4------4------4-4------4---------------------------------------|
A|-7------------4--6---4--6-----4--6---4--6--7-7------7------7-7------7------|
E|-----------------------------------------------7--9---7--9-----7--9---7--9-|

G|--------------------------------------------------------------------|
D|--4-4------4------4-4------4----------------------------------------|
A|------4--6---4--6-----4--6---4--6--7-7------7------7----------2-4-5-|
E|---------------------------------------7--9---7--9--- 0-2-4-5-------|

 Verse 3:

G|------------------------------------------------------------------------|
D|-6-6-------6------6-6-------6-------9-9-------9-------9-9-------9-------|
A|------6--8---6--8------6--8---6--8------9--11---9--11-----9--11---9--11-|
E|------------------------------------------------------------------------|

G|------------------------------------------------------------------------|
D|-7-7-------7------7-7-------7-------6-6------6------6-6------6----------|
A|------7--9---7--9------7--9---7--9------6--8---6--8-----6--8---6--8-----|
E|------------------------------------------------------------------------|

verse 3 End:

G|------------------------------------------------------------------------|
D|-6-6-------6------6-6-------6-------9-9-------9-------9-9-------9-------|
A|------6--8---6--8------6--8---6--8------9--11---9--11-----9--11---9--11-|
E|------------------------------------------------------------------------|

G|------------------------------------------------------------------------|
D|-7-7-------7------7-7-------7-------6-6------6------6-6-----------------|
A|------7--9---7--9------7--9---7--9------6--8---6--8-------4---2---0-----|
E|------------------------------------------------------------------------|

 Chorus 3:

G|--------------------------------------------------------------------|
D|-2-2-------2------2-2-------2---------------------------------------|
A|------2--4---2--4------2--4---2--4--2-2------2------2-2------2------|
E|----------------------------------------2--4---2--4-----2--4---2--4-|

G|---------------------------------------------------------------------|
D|------------------------------------2-2-------2------2---------------|
A|----------------------------------------2---4---2--4-----------2-4-5-|
E|-5-5--0--2-5-0--2-5-5--0--2-5-0--2---------------------0-2-4-5-------|

G|----------------------------------------------------4-4-2-2-1-1-----|
D|-2-2-------2------2-2-------2-----------------------------------4-4-|
A|------2--4---2--4------2--4---2--4--2-2------2----------------------|
E|----------------------------------------2--4---2--4-----------------|

G|--------------------------------------------------------------------|
D|------------------------------------2-2------2------2-2------2------|
A|----------------------------------------2--4---2--4-----2--4---2--4-|
E|-5-5--0--2-5-0--2-5-5--0--2-5-0--2----------------------------------|

 Song end:

G|------------------------------------------------------------------------|
D|-----------------------------------9-9-------9-------9-9--------9-------|
A|-7-7------7------7-7-------7-----------9--11---9--11------9--11---9--11-|
E|-----7--9---7--9------7--9---7--9---------------------------------------|

G|------------------------------------------------------------------------|
D|-----------------------------------9-9-------9-------9-9--7-7--6-6------|
A|-7-7------7------7-7-------7-----------9--11---9--11----------------9-9-|
E|-----7--9---7--9------7--9---7--9---------------------------------------|

Repeat song end until fade.

| /  slide up
| \  slide down
| h  hammer-on
| p  pull-off
| ~  vibrato
| +  harmonic
| x  Mute note
===============================================================================





Comments


Popular Echo And The Bunnymen tabs & chords
All That Jazz 2 Bass Tabs
Back Of Love 2 Bass Tabs
Going Up Bass Tabs
Do It Clean Chords
It's Alright Chords
Pictures On My Wall Chords
Back Of Love Tabs
Bring On The Dancing Horses Intro Tabs
Just A Touch Away Ukulele
Think I Need It Too Ukulele


Song lyrics



↑ Back to top | Tablatures and chords are parodies/interpretations of the original songs. You may use it for private study, scholarship, research or language learning purposes only
© 2014 AZChords.com Contact us | Privacy policy | DMCA | Add/correct tabs | Request tabs | Top 50 tabs