» » »

Happy Death Men Bass tabs (ver.1)

Artists:  A B C D E F G H I J K L M N O P Q R S T U V W X Y Z # 

Happy Death Men Bass tabs (ver.1)

Echo And The Bunnymen
Rating:
0/5 (0 votes)

Hard to play? Try these video lessons and learn fast.
                ECHO & THE BUNNYMEN - HAPPY DEATH MEN
BASSIST: LES PATTINSON

VERSE

E --0-0----0-0---0-0---0-0---0-0---(5)----|
A ------7------7-----7-----7-----7--------|
D ----------------------------------------|
G ----------------------------------------|

VARIATIONS

E ----------------------------------------|
A --0-0----0-0---0-0---0-0---0-0---(5)----|
D ------7------7-----7-----7-----7--------|
G ----------------------------------------|

VARIATIONS


E --0-0----0-0---0-0---0-0---0-0----------|
A ------7------7-----7-----7-----7--(5)---|
D ----------------------------------------|
G ----------------------------------------|

E ----------------------------------------|
A --0-0----0-0---0-0---0-0---0-0----------|
D ------7------7-----7-----7-----7--(5)---|
G ----------------------------------------|

E --0-0----0-0---0-0---0-0---0-0-----5----|
A ------7------7-----7-----7-----7-5------|
D ----------------------------------------|
G ----------------------------------------|

JAH WOBBLE IS GOD!!!
            
Hard to play? Try these video lessons and learn fast. | Correct




comments powered by Disqus
↑ Back to top | Tablatures and chords are parodies/interpretations of the original songs. You may use it for private study, scholarship, research or language learning purposes only