» » »

Ebba Gron, Were Only In It For The Drugs Tabs (ver.2)

Artists:  A B C D E F G H I J K L M N O P Q R S T U V W X Y Z # 

Were Only In It For The Drugs Tabs (ver.2)

Ebba Gron Tabs
 Rating:
3.8/5 (5 votes)
Were Only In It For The Drugs lessons Tabs too difficult? Try these video lessons and learn fast
                Ebba Grön - We're only in it for the drugs / Knarka supa o slåss.

e------------------------------|
B------------------------------|
G-999-9-----9-9-9-9-9-9-9-9----|
D-999-9-9-9-9-9-9-9-9-9-9-9----| x 4
A-777-7-9-9-7-7-7-7-7-7-7-7----|
E-------7-7--------------------|

e---------------------------------------------------------------------------|
B---------------------------------------------------------------------------|
G-9-9-----9-9---9-9-----9-9-9-9-9-9-9-9---9-9-----9-9-6-----9-9-9-9-9-9-9-9-|
D-9-9-9-9-9-9-9-9-9-9-9-9-9-9-9-9-9-9-9---9-9-9-9-9-9-6-7-9-9-9-9-9-9-9-9-9-| x2
A-7-7-9-9-7-7-9-7-7-9-9-7-7-7-7-7-7-7-7---7-7-9-9-7-7-4-7-9-7-7-7-7-7-7-7-7-|
E-----7-7-----7-----7-7-----------------------7-7-------5-7-----------------|

e---------------|
B---------------|
G---------------|
D-7-9-9-9-9-9---|
A-7-9-9-9-9-9---| x4
E-5-7-7-7-7-7---|

e-------------------------------------------------------------------------|
B-------------------------------------------------------------------------|
G-9------------9------------------------9-------------------9-------------|
D-9-x16-9------9--x16-9------7-----9----9--x8-7-------9-----9--x16-9------| x2
A-7-----9--x16-7------9--x16-7-x8--9-x8-7-----7--x16--9--x8-7------9--x16-|
E-------7-------------7------5-----7----------5-------7------------7------|

If you've heard the song you will know in what order you will play the different 
;)
            
Submit corrections

comments powered by Disqus
↑ Back to top | Ebba Gron Tabs for Were Only In It For The Drugs. Lyrics for acoustic guitar and electric guitar. Tablatures and chords are parodies/interpretations of the original songs. You may use it for private study, scholarship, research or language learning purposes only