» » »

Ung Och Kat Bass tabs (ver.1)

Artists:  A B C D E F G H I J K L M N O P Q R S T U V W X Y Z # 

Ung Och Kat Bass tabs (ver.1)

Ebba Gron
Rating:
0/5 (0 votes)

Hard to play? Try these video lessons and learn fast.
                This is my first tab, so yeah, I suck. But I think this is right.
Ebba Gron - Ung & Kat

G|-------------------|
D|-------------------|  4 times
A|----9~-7~-777-5-6--|
E|-5~--------------7-|

G|---------------------------------------------------------------------------|
D|---------------------------------------------------------------------------|
A|----------55555555----------55555555----------55555555-----------5555-7777-|
E|-55555555----------55555555----------55555555-----------55555555-----------|

G|-------------------|
D|-------------------|  4 times
A|----9~-7~-777-5-6--|
E|-5~--------------7-|

G|---------------------------------------------------------------------------|
D|---------------------------------------------------------------------------|
A|----------55555555----------55555555----------55555555-----------5555-7777-|
E|-55555555----------55555555----------55555555-----------55555555-----------|

G|-------------------|
D|-------------------|  4 times
A|----9~-7~-777-5-6--|
E|-5~--------------7-|

G|-------------------------------------|
D|-------------------------------------|  2 times
A|-9~--7~--9~--7~--5555-7777-5555-7777-|
E|-------------------------------------|

G|-------------------|
D|-------------------|  4 times
A|----9~-7~-777-5-6--|
E|-5~--------------7-|

G|---------------------------------------------------------------------------|
D|---------------------------------------------------------------------------|
A|----------55555555----------55555555----------55555555-----------5555-7777-|
E|-55555555----------55555555----------55555555-----------55555555-----------|

G|-------------------|
D|-------------------|  4 times
A|----9~-7~-777-5-6--|
E|-5~--------------7-|

G|---------------------------------------------------------------------------|
D|---------------------------------------------------------------------------|
A|----------55555555----------55555555----------55555555-----------5555-7777-|
E|-55555555----------55555555----------55555555-----------55555555-----------|

G|-------------------|
D|-------------------|  4 times
A|----9~-7~-777-5-6--|
E|-5~--------------7-|

G|-------------------------------------|
D|-------------------------------------|  2 times
A|-9~--7~--9~--7~--5555-7777-5555-7777-|
E|-------------------------------------|

G|-------------------|
D|-------------------|  4 times
A|----9~-7~-777-5-6--|
E|-5~--------------7-|

G|-------------------------------------|
D|-------------------------------------|  2 times
A|-9~--7~--9~--7~--5555-7777-5555-7777-|
E|-------------------------------------|

G|--------------------|
D|--------------------| rest of the song..
A|----9~-7~-777-5-6---|
E|-5~---------------7-|
            
Hard to play? Try these video lessons and learn fast. | Correct




comments powered by Disqus
↑ Back to top | Tablatures and chords are parodies/interpretations of the original songs. You may use it for private study, scholarship, research or language learning purposes only