» » »

Ebba Gron, Totalvgra Bass tabs (ver.1)

Artists:  A B C D E F G H I J K L M N O P Q R S T U V W X Y Z # 

Totalvgra Bass tabs (ver.1)

Ebba Gron Tabs
 Rating:
4/5 (4 votes)
Totalvgra lessons Tabs too difficult? Try these video lessons and learn fast
1
                Band:Ebba Grön
Tuning:Standard(EADG)
                      Intro:2x
G---------------------------------------------------------------------------|
D---------------------------------------------------------------------------|
A-0-0-0-0-0-0---0-5-0-0-0-0-0-0--0--7-0-0-0-0-0-0-0-0-----------------------|
E---------------------------------------------------------------------------|I

G-----------------------------------------0---------------------------------|
D------------------------------------2-3------------------------------------|
A---------------------------------3----------0-0----------------------------|
E---2/3-3-2/3-3-2/3-3-3-3-3-------------------------------------------------|

G-----------------------------------------0---------------------------------|
D------------------------------------2-3------------------------------------|
A---------------------------------3----------0-0----------------------------|
E---2/3-3-2/3-3-2/3-3-3-3-3-------------------------------------------------|

                       Verse:
G-----------------------------------------------------------------------------------|
D-----------------0--------------------2--------------------------------------------|
A-0-0-0-0-0-0---0--0-0-0-0-0-0--0---------0-0-0-0---0-------------------------------|
E-----------------------------------------------------------------------------------|

                      Chorus:
G---------------------------------------------------|
D-2-2-2-2-2-2----------------0-0-----0---0----------|
A-----------------0-0-----------------3------3-2-0--|                   2x
E-------------------------3-3-----------------------|


                Verse

               Chorus

                Verse

                Chorus
            
Submit corrections

comments powered by Disqus
↑ Back to top | Ebba Gron Bass for Totalvgra. Lyrics for acoustic guitar and electric guitar. 1 Tablatures and chords are parodies/interpretations of the original songs. You may use it for private study, scholarship, research or language learning purposes only