» » »

Slicka Uppt Sparka Nert Bass tabs (ver.1)

Artists:  A B C D E F G H I J K L M N O P Q R S T U V W X Y Z # 

Slicka Uppt Sparka Nert Bass tabs (ver.1)

Ebba Gron
Rating:
5/5 (1 vote)

Hard to play? Try these video lessons and learn fast.
                Band: Ebba Grön
Låt: Slicka Uppåt Sparka Neråt
Stämd: Standard(EADG)
Svårighetsgrad: Medel
Killen som skrev tablaturen: Jesper Nordberg

Intro:
G----------------------------------------11/12I
D--------5------2----------5------------------I
A---5---------3---3------5--------------------I
E---------------------------------------------I

Vers:

G--------------------I
D--------5-----------I
A---5------3-3-2-0---I 4x
E------------------3-I


Före Refräng:
G----------------------------------I
D------------------5-5-5-5-5-5-5-5-I
A----7-7-7-7-7-7-7-----------------I 4x 
E----------------------------------I

G-----------------------------------I
D-----------------------------------I
A-5-5-5-5-5-5-5-5-5-5-5-5-5-5-5-5-5-I
E-----------------------------------I

Refräng:

G---------------------------------I
D-----------------5-5-5-5-5-5-5-5-I
A-0-0-0-0-0-0-0-0-----------------I 4x
E---------------------------------I

G-5-5-5-5-5-5-5-5-5--------I
D--------------------------I
A--------------------------I
E--------------------------I

spela detta ända tills outrot kommer och när det kommer ska du spela introt ända till sl*tet.
            
Hard to play? Try these video lessons and learn fast. | Correct




comments powered by Disqus
↑ Back to top | Tablatures and chords are parodies/interpretations of the original songs. You may use it for private study, scholarship, research or language learning purposes only