» » »

Ebba Gron, Profit Tabs (ver.1)

Artists:  A B C D E F G H I J K L M N O P Q R S T U V W X Y Z # 

Profit Tabs (ver.1)

Ebba Gron Tabs
Rating:
0/5 (0 votes)
Profit lessons Tabs too difficult? Try these video lessons and learn fast
                
This is my first tab, and, I'm not really used to write tabs. Well, I hope you like it c:

Intro

e|-------------------------------------------------------------|
B|-------------------------------------------------------------|
G|---------------------------9-9-9-9-9-9-9-9-------------------|
D|---------------------------9-9-9-9-9-9-9-9-------------------|
A|--7-7-7-7-7-7-7-7-7-7-7-7--7-7-7-7-7-7-7-7-------------------|
E|--5-5-9-5-5-5-5-5-9-5-5-5------------------------------------| x2

Or something like that.
The first part is mostly just how I to put your hands, so if you don't get it, just 
listen to the song. It's pretty simple.

Verse

e|----------------------------------------------------------------------|
B|----------------------------------------------------------------------|
G|---------5-5-5-5---------5-5-5-5-----------5-5-5-5---------5-5-5-5----|
D|-7---7---5-5-5-5-7---7---5-5-5-5---7---7---5-5-5-5-7---7---5-5-5-5----|
A|-7---7---3-3-3-3-7---7---3-3-3-3---7---7---3-3-3-3-7---7---3-3-3-3----|
E|-5---5-----------5---5-------------5---5-----------5---5--------------|

e|----|
B|----|
G|-9--|
D|-9--|
A|-7--|
E|----| Play it about 25 times or something.  x2


Chorus

e|----------------------------|
B|----------------------------|
G|-5-5-5-5--------------------|
D|-5-5-5-5--5-5-5-5--3-3-3-3--|
A|-3-3-3-3--5-5-5-5--3-3-3-3--|
E|----------3-3-3-3—-1-1-1-1--|



e|----|
B|----|
G|-7--|
D|-7--|
A|-5--|
E|----| Play this about 20 times or something   x2


Verse

e|----------------------------------------------------------------------|
B|----------------------------------------------------------------------|
G|---------5-5-5-5---------5-5-5-5-----------5-5-5-5---------5-5-5-5----|
D|-7---7---5-5-5-5-7---7---5-5-5-5---7---7---5-5-5-5-7---7---5-5-5-5----|
A|-7---7---3-3-3-3-7---7---3-3-3-3---7---7---3-3-3-3-7---7---3-3-3-3----|
E|-5---5-----------5---5-------------5---5-----------5---5--------------|

e|----|
B|----|
G|-9--|
D|-9--|
A|-7--|
E|----| Play it about 25 times or something.  x2



Chorus

e|----------------------------|
B|----------------------------|
G|-5-5-5-5--------------------|
D|-5-5-5-5--5-5-5-5--3-3-3-3--|
A|-3-3-3-3--5-5-5-5--3-3-3-3--|
E|----------3-3-3-3—-1-1-1-1--|



e|----|
B|----|
G|-7--|
D|-7--|
A|-5--|
E|----| Play this about 20 times or something   x2


Outro thingy

e|-------------------------------------------------------------|
B|-------------------------------------------------------------|
G|-------------------------------------------------------------|
D|--7-\--------------------------------------------------------|
A|--7-\--------------------------------------------------------|
E|--5-\--------------------------------------------------------|

As you probably have guessed, the "\" means "slide".
            

comments powered by Disqus
↑ Back to top | Ebba Gron Tabs for Profit. Lyrics for acoustic guitar and electric guitar. Tablatures and chords are parodies/interpretations of the original songs. You may use it for private study, scholarship, research or language learning purposes only