» » »

Boys N The Hood Tabs (ver.1)

Artists:  A B C D E F G H I J K L M N O P Q R S T U V W X Y Z # 

Boys N The Hood Tabs (ver.1)

Eazy E
Rating:
0/5 (0 votes)

Hard to play? Try these video lessons and learn fast.
                

Main Riff:

-||--------------------|--------------------||--------------------------------
-||--------------------|--------------------||--------------------------------
-||--------------------|--------------------||--------------------------------
-||--------------------|--------------------||--------------------------------
-||----2--2--2--2-2----|----2--2--2--2-2----||--------------------------------
-||--------------------|--------------------||--------------------------------
        
Synth Riff:                                                                      

-||--------------------------------|----------------------------||------------
-||--------------------------------|----------------------------||------------
-||----4--4--4----4-6--4-6----4----|----4--4--4----4-6--4--6----||------------
-||--------------------------------|----------------------------||------------
-||--------------------------------|----------------------------||------------
-||--------------------------------|----------------------------||------------
   
Sunth Riff 2: Played one octave lower  

       :50                                                                           

-||------------------------------------||-------------------------------------
-||------------------------------------||-------------------------------------
-||------------------------------------||-------------------------------------
-||----12--10--------------------------||-------------------------------------
-||------------12--10------------------||-------------------------------------
-||--------------------12--10--8--5----||-------------------------------------
            
Hard to play? Try these video lessons and learn fast. | Correct




comments powered by Disqus
↑ Back to top | Tablatures and chords are parodies/interpretations of the original songs. You may use it for private study, scholarship, research or language learning purposes only