» » »

Heie Nchte In Palermo Tabs (ver.1)

Artists:  A B C D E F G H I J K L M N O P Q R S T U V W X Y Z # 

Heie Nchte In Palermo Tabs (ver.1)

Eav
Rating:
0/5 (0 votes)

Hard to play? Try these video lessons and learn fast.
                It's an Austrian song about the Italian Mafia.

Play this eleven times
        C
E|-----------0----|
B|--------1-----1-|
G|-----0----------|
D|----------------|
A|--3-------------|
E|----------------|
        F
E|-----------1----|
B|--------1-----1-|
G|-----2----------|
D|----------------|  x2
A|--3-------------|
E|----------------|
        G
E|-----------3----|
B|--------3-----3-|
G|-----4----------|
D|----------------|  x1
A|--5-------------|
E|----------------|
         F
E|-----------3----|
B|--------1-----1-|
G|-----2----------|  x1
D|----------------|  
A|--3-------------|
E|----------------|
        C
E|-----------0----|
B|--------1-----1-|
G|-----0----------|
D|----------------|  x1
A|--3-------------|
E|----------------|

E|--1--3--0-------|
B|--1--3--1-------|
G|--2--4--0-------|
D|--3--5--2-------|  x1
A|--3--5--3-------|
E|--1--3----------|

        C
E|-----------0----|
B|--------1-----1-|
G|-----0----------|
D|----------------|  x2
A|--3-------------|
E|----------------|

         F
E|-----------3----|
B|--------1-----1-|
G|-----2----------|  x2
D|----------------|  
A|--3-------------|
E|----------------|

        G
E|-----------3----|
B|--------3-----3-|
G|-----4----------|
D|----------------|  x1
A|--5-------------|
E|----------------|

         F
E|-----------3----|
B|--------1-----1-|
G|-----2----------|  x2
D|----------------|  
A|--3-------------|
E|----------------|

        C
E|-----------0----|
B|--------1-----1-|
G|-----0----------|
D|----------------|  x1
A|--3-------------|
E|----------------|

E|--1--3--0-------|
B|--1--3--1-------|
G|--2--4--0-------|
D|--3--5--2-------|  x1
A|--3--5--3-------|
E|--1--3----------|

Strike it down with your thumb


E|--00000--111111--000000-2-2--000000--11111111--333333333------|
B|--11111--111111--111111-1-1--111111--11111111--333333333------|
G|--22222--222222--222222-2-2--222222--22222222--444444444------|
D|--22222--333333--222222-0-0--222222--33333333--555555555------|  
A|--00000--333333--000000------000000--33333333--555555555------|
E|--------------------------------------------------------------|

Refrain:

Change the Chords when you hear a difference.

C          F          G         F       C     F G A   two times

then start from the beginning


But not eleven times the C- Chord but only two times.
            
Hard to play? Try these video lessons and learn fast. | Correct




comments powered by Disqus
↑ Back to top | Tablatures and chords are parodies/interpretations of the original songs. You may use it for private study, scholarship, research or language learning purposes only