>
 >
When In Rome

When In Rome Guitar Tabs

Eatmewhileimhot - When In Rome chords, tabs, tablatures, lyrics

Guitar lessons | Add/correct | Request | Top 50 tabs Artists:  A B C D E F G H I J K L M N O P Q R S T U V W X Y Z 0-9

When In Rome Guitar Tabs – Eatmewhileimhot

CD, Sheet music, Poster

Do you like When In Rome? Share with your friends now
Tabs
-----------------------------------------------------------------------------
-----------------------------------------------------------------------------

here's the tab, and you can figure out the pattern by yourself, use my cover video as a
have fun :D


Tuning: Drop C


D|------------------------------------------------------------------|
A|------------------------------------------------------------------|
F|-10---5----7------------------------------------------------------|
C|-x----x----x-------------------2----------------2-----------------|  x2
G|-8----3----5---------------2-3------------2h3h5---5p3p2-----------|
C|-----------------0-000-00--------0-000-00-------------------------|

D|------------------------------------------------------------------|
A|------------------------------------------------------------------|
F|------------------------------------------------------------------|
C|-0~-0~-0~---x-x-x-x---0~-0~-0~--x-x-x-x-x-x-----------------------|
G|-0~-0~-0~---x-x-x-x---0~-0~-0~--x-x-x-x-x-x-----------------------|
C|-0~-0~-0~---x-x-x-x---0~-0~-0~--x-x-x-x-x-x-----------------------|

D|---------------------------------------------------------0~--------|
A|---------------------------------------------------------0~--------|
F|---------------------------------------------------------0~--------|
C|---------------------------------------------------------5~--------|
G|---------------------------------------------------------3~--------|
C|-0000-00-0000-0000-0000-00-0000-0000-0000-00-0000-0000-------------|

D|--------------0~--------------------------------------------------|
A|--------------0~--------------------------------------------------|
F|--------------0~--------------------------------------------------|
C|-0-3-0--5-0-3-5~---0-3-0-5-0-3-0~---------------------------------|  x2
G|-0-3-0--3-0-3-3~---0-3-0-3-0-3-0~---------------------------------|
C|-0-3-0----0-3------0-3-0---0-3-0~---------------------------------|

D|------------------------------------------------------------------|
A|------------------------------------------------------------------|
F|----------------10----5----7--------------------------------------|
C|----------------x-----x----x---7----------------------------------|  x2
G|----------------8-----3----5---7----------------------------------|
C|-pick slide--------------------7----------------------------------|

D|-------------5*|
A|-----------5*--|
F|---------------|
C|-----0---------| figure the pattern
G|-----0---------|
C|-----0---------|

D|-----------------------------------------------------------------------------|
A|-----------------------------------------7---7--7----------------------------|
F|-----------------------------------------9b--9b-9b---------------------------|
C|--0----3----0-----0-0--0-0--5-5-5--0-0---------------------------------------|
G|--0----3----0-----0-0--0-0--3-3-3--0-0---------------------------------------|
C|--0----3----0-----0-0--0-0---------0-0---------------------------------------|

D|---------------------------------------------|
A|--------------7--7--7------------------------|
F|--------------9b-9b-9b-----------------------|
C|--0-5-0-0------------------------------------| figure the pattern
G|--0-3-0-0------------------------------------| last time, hold the 7 9b
C|--0---0-0------------------------------------|

D|-----------------------------------------------------------|
A|-----------------------------------------------------------|
F|-----------------------------------------------------------|
C|-----------------------------------------------------------| repeat 2x
G|------------8-----------7-------------8------7p0-8p0-5h7---|
C|--8-8-8-8h10---7-7-7-7h8-8--8-8-8-8h10--7-7-7--------------|


D|-----------------------------------------------------------|
A|-----------------------------------------------------------|
F|-----------------------------------------------------------|
C|--0-3-5-5-3-0-3-5-5-3-3--0-3-5-5-3-3-0-3-5-5-xxxx----------|
G|--0-3-3-5-3-0-3-3-5-3-3--0-3-3-5-3-3-0-3-3-5-xxxx----------|
C|--0-3---5-3-0-3---5-3-3--0-3---5-3-3-0-3---5-xxxx----------|

D|-------------------10------10-----10-------------------------------------|
A|-------------------13(7x)--13(4x)-14(3x)---------------------------------|
F|-------------------------------------------------------------------------|
C|-------------------------------------------------------------------------|
G|-5------3----------------------------------------------------------------|
C|-3(8x)--2(8x)----0-------0-----------------------------------------------|


D|---------------------------------------------------------------------------|
A|---------------------------------------------------------------------------|
F|---------------------------------------------------------------------------|
C|-0-------------------------------------------------------------------------| figure the
G|-0-------------------------------------------------------------------------| pattern
C|-0-------------------------------------------------------------------------|

sorry took so long guys :D





Comments


Popular Eatmewhileimhot tabs & chords
Mother May I Chords
All My Friends Tabs
Damn Straight Tabs
Screw The Standard Tabs
Screw The Standard 1 Tabs
The Point Tabs
The Point 1 Tabs
Xburritox Tabs
Xburritox 1 Tabs
Mother May I Ukulele


Song lyrics



↑ Back to top | Tablatures and chords are parodies/interpretations of the original songs. You may use it for private study, scholarship, research or language learning purposes only
© 2014 AZChords.com Contact us | Privacy policy | DMCA | Add/correct tabs | Request tabs | Top 50 tabs