» » »

Eatmewhileimhot, Damn Straight Tabs (ver.1)

Artists:  A B C D E F G H I J K L M N O P Q R S T U V W X Y Z # 

Damn Straight Tabs (ver.1)

Eatmewhileimhot Tabs
 Rating:
4/5 (4 votes)
Damn Straight lessons Tabs too difficult? Try these video lessons and learn fast
                Tuning: Drop A
>: Slide up
T: Tremolo Picking
*: Bend
p: Pull Off

I've done a playtrough of this,if you need help watch it!
-------------------------------------------------------|
B :-----------------|----------------|
F#:-----------------|----------------|
D :-----------------|----------------| 2x
A :-0~-0---0-1>-----|-0~-0-0-0-0-0-7-|
E :-0~-0---0-1>-----|-0~-0-0-0-0-0-7-|
A :-0~-0---0-1>-----|-0~-0-0-0-0-0-7-|

B :-22t---21t-18t-17t---11t-10t--12t-14t--|
F#:---------------------------------------|
D :---------------------------------------|
A :---------------------------------------|
E :---------------------------------------|
A :---------------------------------------|

B :-12~------13*14~---|
F#:-14*15~------------| I'm not completely sure
D :-------------------| About this
A :-------------------|
E :-------------------|
A :-------------------|

B :-------------------|
F#:-------------------| 2x
D :-7-------7---------| This part is strummed
A :-7---6---7---6-----|
E :-5---6---5---6-0---|
A :-----6-------6-0---|

B :--------|      
F#:--------|
D :--------| 4x 
A :-3-2-2--|
E :-3-2-2--|
A :-3-2-2--|

B :-----------------------|
F#:-----------------------|
D :---------3-------------| 3x
A :-3-2-0-2--2--3-2-0-2-0~|
E :-3-2-0-2--2--3-2-0-2-0~|
A :-3-2-0-2--2--3-2-0-2-0~|

B :-------------|      
F#:-------------|
D :--------3-3-3| 
A :-3-2-0-2-2-2-|
E :-3-2-0-2-2-2-|
A :-3-2-0-2-2-2-|

"Don't f**k with us"
B :----------------------------13~--|
F#:------------------------12~------|
D :--------------------15~----------| 4x
A :---------------------------------|
E :-2p0-0--1--2~--------------------|
A :-3p0-0--2--3~--------------------|

B :-------------------------------------------|
F#:-------------------------------------------|
D :-------------------------------------------| They play some variations on 
A :-0--6-0----6--6--6--6-0-0-6-0-0----6~-6~-6~| this
E :-0--6-0----5--5--5--6-0-0-6-0-0----5~-5~-5~|
A :-0--6-0-00----------6-0-0-6-0-0-00---------|

Now that sick riff ^^
B :---------------------------------|
F#:---------------------------------|
D :---------------------------------|
A :----------3---6-5-3-5------------|
E :----3-4-5---5---------5~--3-4-5--|
A :-0~------------------------------|

B :-----------------------------------------|
F#:-----------------------------------------|
D :-----------------------------------------|
A :----------3---6-5-3-5--------------------|
E :----3-4-5---5---------5-4-3-6-5-3-5-3-1~-|
A :-0~-------------------------6-5-3-5-3-1~-|

B :---------------------------------|-------------------------------|
F#:---------------------------------|-------------------------------|
D :---------------------------------|-------------------------------| 3x
A :----------3---6-5-3-5------------|----------3---6-5-3------------|
E :----3-4-5---5---------5~--3-4-5--|----3-4-5---5-------5-4-3------|
A :-0~------------------------------|-0~----------------------------|

B :---------------------------------|----------------------------------------------|
F#:---------------------------------|----------------------------------------------|
D :---------------------------------|----------------------------------------------|
A :----------3---6-5-3-5------------|----------3---8-10-6-8-6-8-6-5------6-5-3~--0-|
E :----3-4-5---5---------5~--3-4-5--|----3-4-5---5------------------8-6--6-5-3~--0-|
A :-0~------------------------------|-0~---------------------------------6-5-3~--0-|

B :----00~----00~----------------------|
F#:-66~----66~-------------------------|
D :------------------------------------| They play this a bunch of times
A :-----------------00~----00~---------|
E :--------------66~----66~------------|
A :---------------------------0~-------|

--------------------------------------------------------------------------------------|
--------------------------------------------------------------------------------------|
            
Submit corrections

comments powered by Disqus
↑ Back to top | Eatmewhileimhot Tabs for Damn Straight. Lyrics for acoustic guitar and electric guitar. Tablatures and chords are parodies/interpretations of the original songs. You may use it for private study, scholarship, research or language learning purposes only