» » »

Eatmewhileimhot, All My Friends Tabs (ver.1)

Artists:  A B C D E F G H I J K L M N O P Q R S T U V W X Y Z # 

All My Friends Tabs (ver.1)

Eatmewhileimhot Tabs
Rating:
4/5 (4 votes)
Hard to play? Try these video lessons and learn fast.
                Eatmewhileimhot!


Tuning: cgcfad

Key
* = palmute
br= bend and release bend

e|--------------------------------------------------------------------------|
B|--------------------------------------------------------------------------|
G|--------------------------------------------------------------------------|
D|--7--7-------7--7-------7--7-------9--9-----7--7--------------------------|
A|--5--5-x14---5--5-x14---7--7-x14---9--9-x5--7--7-x5-----------------------|
E|-------------5--5-------7--7-------9--9-----7--7--------------------------|
       *          *          *          *        *

e|----------------------------------------------------------------------------|
B|----------------------------------------------------------------------------|
G|----------------------------------------------------------------------------|
D|--5--5-------7--7------4--4-------5--5--------------------------------------|
A|--5--5-x14---7--7-x14--4--4-x14---5--5-x14----------------------------------|
E|--5--5-------7--7------4--4-------5--5--------------------------------------|
       *          *         *          *
e|----------------------------------------------------------------------------|
B|----------------------------------------------------------------------------|
G|------7777777-x-2------------7777777-x-2------------------------------------|
D|--5----------------5-5-5-5------------------0--0--0--0-----------x2---------|
A|--5----------------5-5-5-5------------------0--0--0--0-x4-------------------|
E|--5----------------5-5-5-5------------------0--0--0--0----------------------|
                       *                      *  *  *  *
e|--------------------------------------------------------------------------|
B|--------------------------------------------------------------------------|
G|--------------------------------------------------------------------------|
D|--0-0-0-000-0----0-0-0-00000000--0-0-0-000-0----0-0-0-00000000---x2-------|
A|--0-0-0-000-0----0-0-0-00000000--0-0-0-000-0----0-0-0-00000000------------|
E|--0-0-0-000-0----0-0-0-00000000--0-0-0-000-0----0-0-0-00000000------------|
     ALL PALM-MUTED

e|--------------------------------------------------------------------------|
B|--------------------------------------------------------------------------|
G|--------------------------------------------------------------------------|
D|--7--7-------7--7-------7--7-------9--9-----7--7--------------------------|
A|--5--5-x14---5--5-x14---7--7-x14---9--9-x5--7--7-x5-----------------------|
E|-------------5--5-------7--7-------9--9-----7--7--------------------------|
       *          *          *          *        *

e|----------------------------------------------------------------------------|
B|----------------------------------------------------------------------------|
G|----------------------------------------------------------------------------|
D|--5--5-------7--7------4--4-------5--5--------------------------------------|
A|--5--5-x14---7--7-x14--4--4-x14---5--5-x14----------------------------------|
E|--5--5-------7--7------4--4-------5--5--------------------------------------|
       *          *         *          *
e|----------------------------------------------------------------------------|
B|----------------------------------------------------------------------------|
G|------7777777-x-2------------7777777-x-2------------------------------------|
D|--5----------------5-5-5-5------------------0--0--0--0-----------x2---------|
A|--5----------------5-5-5-5------------------0--0--0--0-x4-------------------|
E|--5----------------5-5-5-5------------------0--0--0--0----------------------|
                       *                      *  *  *  *
e|--------------------------------------------------------------------------|
B|--------------------------------------------------------------------------|
G|--------------------------------------------------------------------------|
D|--000-000-----000-000------000-000-000-000-000-000------------------------|
A|--000-000-----000-000------000-000-000-000-000-000------------------------|
E|--000-000-----000-000------000-000-000-000-000-000------------------------|
     ALL PALM-MUTE (palm is resting above bass pickup so it makes that sick squeelin sound)
e|--------------------------------------------------------------------------|
B|--------------------------------------------------------------------------|
G|--------------------------------------------------------------------------|
D|--000-000-----000-000------000-000-000-000-000-000----------------x2------|
A|--000-000-----000-000------000-000-000-000-000-000------------------------|
E|--000-000-----000-000------000-000-000-000-000-000------------------------|
     ALL PALM-MUTE (normally)
e|-----------------------------------------------------------------------------|
B|-----------------------------------------------------------------------------|
G|-----------------------------------------------------------------------------|
D|--000-000----------000-000----------000-000-000-000-000-000----------x2------|
A|--000-000--4brbrbr-000-000--4brbrbr-000-000-000-000-000-000---4brbrbr--------|
E|--000-000----------000-000----------000-000-000-000-000-000------------------|
    *** ***          *** ***          *** *** *** *** *** ***

THX
            

comments powered by Disqus
↑ Back to top | Eatmewhileimhot Tabs for All My Friends. Lyrics for acoustic guitar and electric guitar. Tablatures and chords are parodies/interpretations of the original songs. You may use it for private study, scholarship, research or language learning purposes only