» » »

Easyworld, You And Me Bass tabs (ver.1)

Artists:  A B C D E F G H I J K L M N O P Q R S T U V W X Y Z # 

You And Me Bass tabs (ver.1)

Easyworld Tabs
Rating:
0/5 (0 votes)
You And Me lessons Tabs too difficult? Try these video lessons and learn fast
                Song - You and Me
Band - Easyworld
Album - This is where i stand

i decided to tab it up on the fretboard cos its easier in the long run, less 
jumping about with the hands. u can play it either an octave lower (if u can be 
bothered working it out) or on the next highest string. eg fret 7 on A string is 
fret 2 on D string. in the last chorus u miss out a couple of notes on the end of 
the last riff.

Intro
	play 3 times
g----------------------------------!
d----------------------------------!
a-7-7------------------------------!
e------5-5-5--7-7-6-5--5-5h7-5-----!
	then play once:
g----------------------------------!
d------7-7-7--9-9-8-7--7-7h9-7-----!
a-7-7------------------------------!
e----------------------------------!

Verse
g----------------------------------!
d--6-------------------------------!
a-7-7--------------------5-7-------!
e-----5h4-5--7-7-6-5--7-7----------!

g----------------------------------!
d--6-------------------------------!
a-7-7--------------0h12-0h12-------!
e-----5h4-5--7-7-6-----------------!

g----------------------------------!
d--6-------------------------------!
a-7-7--------------------5-7-------!
e-----5h4-5--7-7-6-5--7-7----------!

g----------------------------------!
d--6----7h6-7-6--9-9-8-7-(7-7h9-7)-!
a-7-7------------------------------!
e----------------------------------!

Chorus
g-----------------------------!
d--6---7h6-7-6-7--------------!
a-7-7-------------------------!
e----------------7-7-6-5--555-!

g----------------------------!
d--6---7h6-7-6---------------!
a-7-7----------7-------------!
e----------------7-7-6-5-555-!

g---------------------------------!
d--6---7h6-7-6--------------------!
a-7-7----------7------------------!
e----------------7-7-6-5--5-5h7-5-!

g---------------------------------!
d--6---7h6-7-6-7--9-9-8-7--7-7h9-7!
a-7-7-----------------------------!
e---------------------------------!


Bridge (2:06)
g-------------------------------------------------------!
d-------------------------------7-7-7-7-7-7-7-8---9-8-7-!
a-9-9-9-9-9-9-9-8-7-7-7-7-7-7-7-------------------------!
e-------------------------------------------------------!

2nd to last chorus (chorus 2)
g--------------------------!--------------------------!
d--(voice only)------------!--6-----------------------!
a--------------------------!-7-7----------------------!
e---------------7-6-5--555-!-----5h4-5--7-7-6-5--555--!
	play twise
g-------------------------------!
d--6---7h6-7-6-7--9-9-8-7--777--!
a-7-7---------------------------!
e-------------------------------!

order - verse, chorus, break (just guitar), verse, chorus, bridge, chorus 2, chorus.
            
Submit corrections

comments powered by Disqus
↑ Back to top | Easyworld Bass for You And Me. Lyrics for acoustic guitar and electric guitar. Tablatures and chords are parodies/interpretations of the original songs. You may use it for private study, scholarship, research or language learning purposes only