» » »

Easyworld, Hundredweight Bass tabs (ver.1)

Artists:  A B C D E F G H I J K L M N O P Q R S T U V W X Y Z # 

Hundredweight Bass tabs (ver.1)

Easyworld Tabs
Rating:
5/5 (1 vote)
Hundredweight lessons Tabs too difficult? Try these video lessons and learn fast
                             ***HUNDERDWEIGHT - EASYWORLD***

This is the bass line for the song, but only up untill the key change. All in bars of 4/4
Guitar chords have been placed above the bars, so they can play along.

Symbols:
|:-----:| ***  Repeat
(/)       ***  Bend this note.

Intro.
Same as for the verse, but this is played an octave higher.
G|2-1-|---121|
D|----|4-4---|
A|----|------|
E|----|------|

Verse(A)
   A   C#   F#  D
           min
G|:--------|--------:|
D|:--------|--------:|
A|:0-0-----|------0-:|
E|:----4-4-|2-2-24-4:|
Repeat four times, untill bridge

This is for the Harmonies.
Bridge(B)
  A    A/B  A/C# D    D

G|----|----|----|----|----|
D|----|----|----|0---|0---|
A|0---|2---|4---|----|----|
E|----|----|----|----|----|

Chorus(C)
   A         F#  E 
            min   
G|:---------|--------:|
D|:---------|--------:|  
A|:0-0-42402|--------:|
E|:---------|2-2-0-0-:|
Repeat this three times.

Chorus(C) continued...
  B        D  

G|--------|--------|------------|
D|--------|0-0-0-0-|------------|
A|2-2-2-2-|--------|40--0(2/3)0-|
E|--------|--------|--02--------|
Bend the (2/3) slightly up,to approximatly a semitone (So from note B, to note C flat.

(or if you're on there, The Candys message board.)
            

comments powered by Disqus
↑ Back to top | Easyworld Bass for Hundredweight. Lyrics for acoustic guitar and electric guitar. Tablatures and chords are parodies/interpretations of the original songs. You may use it for private study, scholarship, research or language learning purposes only