» » »

Celebrity Killer Tabs (ver.1)

Artists:  A B C D E F G H I J K L M N O P Q R S T U V W X Y Z # 

Celebrity Killer Tabs (ver.1)

Easyworld
Rating:
0/5 (0 votes)

Tabs too difficult? Try these video lessons and learn fast.
                I've tabbed it so 1 guitar can play the verses


INTRO
e--------------------|
B--------------------|
G--------------------|
D-------------(5)----|
A--------------5--2--|
E-33-2-0-----0-3--0--|

e--------------------------------------|
B--------------------------------------|
G--------------------------------------|
D-------------(5)-------00-1-2----(5)--|
A--------------5--2----------------5-2-|
E-33-2-0-----0-3--0--------------0-3-0-|

e---------------------------------------|
B---------------------------------------|
G---------------------44444444-44444444-|
D-------------(5)-----44444444-44444444-|
A--------------5--2---22222222-22222222-|
E-33-2-0-----0-3--0---------------------|


VERSE
e--------------------|
B--------------------|
G--------------------|
D-------------(5)----|
A--------------5--2--|
E-33-2-0-----0-3--0--|

e--------------------------------------|
B--------------------------------------|
G--------------------------------------|
D-------------(5)-------00-1-2----(5)--|
A--------------5--2----------------5-2-|
E-33-2-0-----0-3--0--------------0-3-0-|

e---------------------------------------|
B---------------------------------------|
G---------------------44444444-55555555-|
D-------------(5)-----44444444-55555555-|
A--------------5--2---22222222-33333333-|
E-33-2-0-----0-3--0---------------------|


CHORUS
Guitar 1 x2
e-------------------------------------|
B-------------------------------------|
G----------77777777-88888888-77777777-|
D-55555555-77777777-88888888-77777777-|
A-55555555-55555555-66666666-55555555-|
E-33333333----------------------------|


Guitar 2 x3             then
e---------------------]--------------------|
B-------------10b-----]-------------10b----|
G-------12-12-----12b-]-10-10-12-12-----12-|
D-12-12---------------]--------------------|
A---------------------]--------------------|
E---------------------]--------------------|

  x3                     then
e---------------------]--------------|
B-------------10b-----]-------14b/15-|
G-------12-12-----12b-]-12-12--------|
D-12-12---------------]--------------|
A---------------------]--------------|
E---------------------]--------------|

VERSE 2 – extra bass notes sound cool ;)
e---------------------|
B---------------------|
G---------------------|
D-------------(5)-----|
A--------------5--2---|
E-33-2-0-----0-3--0---|

e--------------------------------------|
B--------------------------------------|
G--------------------------------------|
D-------------(5)-------00-1-2----(5)--|
A--------------5--2----------------5-2-|
E-33-2-0-----0-3--0--------------0-3-0-|

e--------------------------------------------------|
B--------------------------------------------------|
G--------------------------------------------------|
D-[5555-7777]-----------(5)-----[5555-7777]-00-1-2-|
A-[3333-5555]------------5-2----[3333-5555]--------|
E-------------33-2-0---0-3-0-----------------------|

e-------------------------------------------------------------|
B-------------------------------------------------------------|
G-------------------------------------------------------------|
D--(5)----[5555-7777]-------------(5)—-5555-44444444-55555555-|
A---5-2---[3333-5555]--------------5-2-3333-22222222-33333333-|
E-0-3-0----------------33-2-0----0-3-0------------------------|


CHORUS


BRIDGE
e-----------------------]------------------------------]
B-10-10-10-10-8-8-------]-10-10-10-10-8-8------------7-]
G-----------------9-7b~-]-----------------9-7b---5/7---]
D-----------------------]------------------------------]
A-----------------------]------------------------------]
E-----------------------]------------------------------]

e-----------------------]-----------------------|
B-10-10-10-10-8-8-------]-10-10-10-10-8-8-------|
G-----------------9-7b~-]-----------------9-----|
D-----------------------]-------------------10~-|
A-----------------------]-----------------------|
E-----------------------]-----------------------|

VERSE 3
e--------------------|
B--------------------|
G--------------------|
D-------------(5)----|
A--------------5--2--|
E-33-2-0-----0-3--0--|

e--------------------------------------|
B--------------------------------------|
G--------------------------------------|
D-------------(5)-------00-1-2----(5)--|
A--------------5--2----------------5-2-|
E-33-2-0-----0-3--0--------------0-3-0-|

e------------------------------------------------------|
B------------------------------------------------------|
G------------------------------------44444444-55555555-|
D-[5555-7777]----REST----(5)---------44444444-55555555-|
A-[3333-5555]-------------5-2--------22222222-33333333-|
E-----------------------0-3-0--------------------------|


CHORUS x2

OUTRO
e---------|
B---------|
G---------|
D---------|
A---------|
E-33-2-0~-|
            
Tabs too difficult? Try these video lessons and learn fast.


comments powered by Disqus
↑ Back to top | Tablatures and chords are parodies/interpretations of the original songs. You may use it for private study, scholarship, research or language learning purposes only