>
 >
Remember Sam

Remember Sam Guitar Tabs

Easybeats - Remember Sam chords, tabs, tablatures, lyrics

Guitar lessons | Add/correct | Request | Top 50 tabs Artists:  A B C D E F G H I J K L M N O P Q R S T U V W X Y Z 0-9

Remember Sam Guitar Tabs – Easybeats

CD, Sheet music, Poster

Do you like Remember Sam? Share with your friends now
Tabs
-------------------------------------------------------------------

  THE EASYBEATS - REMEMBER SAM (Vanda/Young) From FRIDAY ON MY MIND 
                  album. Released in 1967.

-------------------------------------------------------------------







       Vanda and Young didn't compose Friday On My Mind by chance.
       In a very short time they made a heap of stimulating three
       minute pop songs that can be considered today as real gems.
       Their chiming two guitar harmonies are very often just fine 
       and Remember Sam is a very good example.
     
        
         





You took his hand
You took his hand instead of mine

Remember Mike, hah
A guy-uy-uy who took inside instead of me

But when I get around to ask you
You turn around, you smile and say
You say

You little man 
Do understand I'd really like to but I'm busy

Call me any monday. Busy every tuesday
Maybe on a friday. No

But now I see you're foolin' me
You only want someone with money

So little girl I've had my pill
So if you want me you can call me

Call me any monday. Busy every tuesday
Maybe on a friday. No






          Use a capo on the 2nd fret for both guitars.

        


                                    
  Ammaj7                          Gmmaj7
e|------- ------- ------- -------|------- ------- ------- -------|
B|-------------------------------|-------------------------------|
G|-------------------------------|-------------------------------|
D|-------------------------------|-------------------------------|
A|0------------------------------|-------------------------------|
E|-------------------------------|3------------------------------|

e|------- ------- ------- -------|------- ------- ------- -------|
B|-------------------------------|-------------------------------|
G|5------------------------------|3------------------------------|
D|6------------------------------|4------------------------------|
A|-------------------------------|-------------------------------|
E|-------------------------------|-------------------------------|

e|4------ ------- ------- -------|2------ ------- ------- -------|
B|5------------------------------|3------------------------------|
G|-------------------------------|-------------------------------|
D|-------------------------------|-------------------------------|
A|-------------------------------|-------------------------------|
E|-------------------------------|-------------------------------|






  Ammaj7                          Gmmaj7
e|------- ------- ------- -------|------- ------- ------- -------|
B|-------------------------------|-------------------------------|
G|-------------------------------|-------------------------------|
D|-------------------------------|-------------------------------|
A|0------------------------------|-------------------------------|
E|-------------------------------|3------------------------------|

e|------- ------- ------- -------|------- ------- ------- -------|
B|-------------------------------|-------------------------------|
G|5------------------------------|3------------------------------|
D|6------------------------------|4------------------------------|
A|-------------------------------|-------------------------------|
E|-------------------------------|-------------------------------|

e|4------ ------- ------- -------|2------ ------- ------- -------|
B|5------------------------------|3------------------------------|
G|-------------------------------|-------------------------------|
D|-------------------------------|-------------------------------|
A|-------------------------------|-------------------------------|
E|-------------------------------|-------------------------------|





                               (No root)
  Em                              Bm-9            Cdim
e|------- ------- ------- -------|------- ------- ------- -------|
B|-------------------------------|-------------------------------|
G|-------------------------------|-------------------------------|
D|-------------------------------|0------------------------------|
A|-------------------------------|----------------2--------------|
E|0------------------------------|-------------------------------|

e|------- ------- ------- -------|------- ------- ------- -------|
B|-------------------------------|----------------4--------------|
G|0------------------------------|5---------------2--------------|
D|2------------------------------|4------------------------------|
A|-------------------------------|-------------------------------|
E|-------------------------------|-------------------------------|


e|3------ ------- ------- -------|2------ ------- 8------ -------|
B|0------------------------------|4---------------7--------------|
G|0------------------------------|-------------------------------|
D|-------------------------------|-------------------------------|
A|-------------------------------|-------------------------------|
E|-------------------------------|-------------------------------|





  Em
e|7------ 7------ 7------ 7------|7------ 7------ 7------ 7------|
B|8-------8-------8-------8------|8-------8-------8-------8------|
G|9-------9-------9-------9------|9-------9-------9-------9------|
D|9-------9-------9-------9------|9-------9-------9-------9------|
A|-------------------------------|-------------------------------|
E|-------------------------------|-------------------------------|

e11------ ------- 7------ -------|------- ------- ------- -------|
B|8---------------8--------------|-------------------------------|
G|-------------------------------|-------------------------------|
D|-------------------------------|-------------------------------|
A|-------------------------------|-------------------------------|
E|-------------------------------|-------------------------------|






                                  Bsus4           B
e|7------ 7------ 7------ 7------|7------ 7------ 7------ 7------|
B|8-------8-------8-------8------|7-------7-------7-------7------|
G|9-------9-------9-------9------|9-------9-------8-------8------|
D|9-------9-------9-------9------|9-------9-------9-------9------|
A|-------------------------------|-------------------------------|
E|-------------------------------|-------------------------------|
              Rmember         Sam



  Em                              Bsus4           B
e|7------ 7------ 7------ 7------|7------ 7------ 7------ 7------|
B|8-------8-------8-------8------|7-------7-------7-------7------|
G|9-------9-------9-------9------|9-------9-------8-------8------|
D|9-------9-------9-------9------|9-------9-------9-------9------|
A|-------------------------------|-------------------------------|
E|-------------------------------|-------------------------------|
              You took his    hand



  Am                              Am7             Am      Am7
e|5------ 5------ 5------ 5------|------- ------- 5------ -------|
B|5-------5-------5-------5------|8-------8-------5-------8------|
G|5-------5-------5-------5------|5-------5-------5-------5------|
D|7-------7-------7-------7------|7-------7-------7-------7------|
A|-------------------------------|-------------------------------|
E|-------------------------------|-------------------------------|
              You took his    hand            instead     of 



  B7        
e|------- ------- ------- -------|------- ------- ------- 7------|
B10------10------10------10------10------10------10------10------|
G|8-------8-------8-------8------|8-------8-------8-------8------|
D|9-------9-------9-------9------|9-------9-------9-------9------|
A|-------------------------------|-------------------------------|
E|-------------------------------|-------------------------------|
  mine



  Em                              Bsus4           B
e|7------ ------- 7------ -------|7------ 7------ 7------ 7------|
B|8---------------8--------------|7-------7-------7-------7------|
G|9---------------9--------------|9-------9-------8-------8------|
D|9---------------9--------------|9-------9-------9-------9------|
A|-------------------------------|-------------------------------|
E|-------------------------------|-------------------------------|
              Remember        Mike                    Hah!
e|------- 7------ ------- 7------|------- 7------ ------- 7------|
B|--------7---------------7------|--------7---------------7------|
G|--------9---------------9------|--------9---------------9------|
D|--------9---------------9------|--------9---------------9------|
A|-------------------------------|-------------------------------|
E|-------------------------------|-------------------------------|
          Bsus4



  Em                              Bsus4           B
e|7------ ------- 7------ -------|7------ 7------ 7------ 7------|
B|8---------------8--------------|7-------7-------7-------7------|
G|9---------------9--------------|9-------9-------8-------8------|
D|9---------------9--------------|9-------9-------9-------9------|
A|-------------------------------|-------------------------------|
E|-------------------------------|-------------------------------|
              A   guy - uy  - uy
e|------- 7------ ------- 7------|------- 7------ ------- 7------|
B|--------7---------------7------|--------7---------------7------|
G|--------9---------------9------|--------9---------------9------|
D|--------9---------------9------|--------9---------------9------|
A|-------------------------------|-------------------------------|
E|-------------------------------|-------------------------------|




  Am                              Am7             Am
e|5------ 5------ 5------ 5------|------- ------- 5------ -------|
B|5-------5-------5-------5------|8---------------5--------------|
G|5-------5-------5-------5------|5---------------5--------------|
D|7-------7-------7-------7------|7---------------7--------------|
A|-------------------------------|-------------------------------|
E|-------------------------------|-------------------------------|
              who took inside                 instead of  *
e|------- 7------ ------- 7------|------- 7------ ------- 7------|
B|--------7---------------7------|--------7---------------7------|
G|--------9---------------9------|--------9---------------9------|
D|--------9---------------9------|--------9---------------9------|
A|-------------------------------|-------------------------------|
E|-------------------------------|-------------------------------|




  B7                      B       Em
e|7------ 7------ 7------ 7------|7------ ------- 7------ -------|
B10------10------10-------7------|8---------------8--------------|
G|8-------8-------8-------8------|9---------------9--------------|
D|9-------9-------9-------9------|9---------------9--------------|
A|-------------------------------|-------------------------------|
E|-------------------------------|-------------------------------|
  me
e|------- 7------ ------- 7------|------- 7------ ------- 7------|
B|--------7---------------7------|--------7---------------7------|
G|--------9---------------9------|--------9---------------9------|
D|--------9---------------9------|--------9---------------9------|
A|-------------------------------|-------------------------------|
E|-------------------------------|-------------------------------|




  D                            
e|5------ ------- 5------ -------|5------ 5------ 5------ 5------|
B|7---------------7--------------|7-------7-------7-------7------|
G|7---------------7--------------|7-------7-------7-------7------|
D|7---------------7--------------|7-------7-------7-------7------|
A|5---------------5--------------|5-------5-------5-------5------|
E|-------------------------------|-------------------------------|
              But when I          get around              to  ask 
e|------- ------- ------- -------|------- ------- ------- -------|
B|-------------------------------|-------------------------------|
G|7-----------7---------------7--|----7-------7------------------|
D|7-----------7---------------7--|----7-------7------------------|
A|5-----------5---------------5--|----5-------5------------------|
E|-------------------------------|-------------------------------|
  D5



  G
e|3------ ------- 3------ -------|3------ 3------ 3------ 3------|
B|3---------------3--------------|3-------3-------3-------3------|
G|4---------------4--------------|4-------4-------4-------4------|
D|5---------------5--------------|5-------5-------5-------5------|
A|5---------------5--------------|5-------5-------5-------5------|
E|3---------------3--------------|3-------3-------3-------3------|
      you
e|------- ------- ------- -------|------- ------- ------- -------|
B|-------------------------------|-------------------------------|
G|-------------------------------|-------------------------------|
D|5-----------5---------------5--|----5------5-------------------|
A|5-----------5---------------5--|----5------5-------------------|
E|3-----------3---------------3--|----3------3-------------------|
  G5



  D
e|5------ ------- 5------ -------|5------ 5------ 5------ 5------|
B|7---------------7--------------|7-------7-------7-------7------|
G|7---------------7--------------|7-------7-------7-------7------|
D|7---------------7--------------|7-------7-------7-------7------|
A|5---------------5--------------|5-------5-------5-------5------|
E|-------------------------------|-------------------------------|
              You turn around,                you smile and   say       
e|------- ------- ------- -------|------- ------- ------- -------|
B|-------------------------------|-------------------------------|
G|7-----------7---------------7--|----7-------7------------------|
D|7-----------7---------------7--|----7-------7------------------|
A|5-----------5---------------5--|----5-------5------------------|
E|-------------------------------|-------------------------------|
  D5


 
  G                               Am              B
e|3------ ------- 3------ -------|5------ 5------ 7------ 7------|
B|3---------------3--------------|5-------5-------7-------7------|
G|4---------------4--------------|5-------5-------8-------8------|
D|5---------------5--------------|7-------7-------9-------9------|
A|5---------------5--------------|7-------7-------9-------9------|
E|3---------------3--------------|5-------5-------7-------7------|
                                  You             say
e|------- ------- ------- -------|------- ------- ------- -------|
B|-------------------------------|-------------------------------|
G|-------------------------------|-------------------------------|
D|5-----------5------------------|7-------7-------9-------9------|
A|5-----------5------------------|7-------7-------9-------9------|
E|3-----------3------------------|5-------5-------7-------7------|
  G5                              A5              B5



  Em                              Bsus4           B
e|7------ ------- ------- -------|7------ 7------ 7------ 7------|
B|8------------------------------|7-------7-------7-------7------|
G|9------------------------------|9-------9-------8-------8------|
D|9------------------------------|9-------9-------9-------9------|
A|7------------------------------|-------------------------------|
E|-------------------------------|-------------------------------|
              You little      man 
e|7------ ------- ------- -------|------- 7------ ------- 7------|
B|8------------------------------|--------7---------------7------|
G|9------------------------------|--------9---------------9------|
D|9------------------------------|--------9---------------9------|
A|7------------------------------|-------------------------------|
E|7------------------------------|-------------------------------|
                                          Bsus4




  Em                              Bsus4           B
e|7------ ------- 7------ -------|7------ 7------ 7------ 7------|
B|8---------------8--------------|7-------7-------7-------7------|
G|9---------------9--------------|9-------9-------8-------8------|
D|9---------------9--------------|9-------9-------9-------9------|
A|-------------------------------|-------------------------------|
E|-------------------------------|-------------------------------|
              Do  understand
e|------- 7------ ------- 7------|------- 7------ ------- 7------|
B|--------7---------------7------|--------7---------------7------|
G|--------9---------------9------|--------9---------------9------|
D|--------9---------------9------|--------9---------------9------|
A|-------------------------------|-------------------------------|
E|-------------------------------|-------------------------------|

 


  Am                              Am7             Am
e|5------ ------- 5------ -------|------- ------- 5------ -------|
B|5---------------5--------------|8---------------5--------------|
G|5---------------5--------------|5---------------5--------------|
D|7---------------7--------------|7---------------7--------------|
A|-------------------------------|-------------------------------|
E|-------------------------------|-------------------------------|
              I'd really      like            to      but I'm 
e|------- 7------ ------- 7------|------- 7------ ------- 7------|
B|--------7---------------7------|--------7---------------7------|
G|--------9---------------9------|--------9---------------9------|
D|--------9---------------9------|--------9---------------9------|
A|-------------------------------|-------------------------------|
E|-------------------------------|-------------------------------|

                                


  B7
e|7------ 7------ 7------ 7------|7------ 7------ 7------ 7------|
B10------10------10------10------10------10------10------10------|
G|8-------8-------8-------8------|8-------8-------8-------8------|
D|9-------9-------9-------9------|9-------9-------9-------9------|
A|-------------------------------|-------------------------------|
E|-------------------------------|-------------------------------|
  busy 
e|------- 7------ ------- 7------|------- 7------ ------- 7------|
B|--------7---------------7------|--------7---------------7------|
G|--------9---------------9------|--------9---------------9------|
D|--------9---------------9------|--------9---------------9------|
A|-------------------------------|-------------------------------|
E|-------------------------------|-------------------------------|

           


  E               A               F#              B
e|0------ 0------ 0------ 0------|2------ 2------ 2------ 2------|
B|0-------0-------2-------2------|2-------2-------4-------4------|
G|1-------1-------2-------2------|3-------3-------4-------4------|
D|2-------2-------2-------2------|4-------4-------4-------4------|
A|2-------2-------0-------0------|4-------4-------2-------2------|
E|0-------0----------------------|2-------2----------------------|
  Call me any     monday.          
e|0------ 0------ 5------ 5---2--|----2-- ------- 7------ 7------|   
B|0-------0-------5-------5---2--|----2-----------7-------7------|
G|1-------1-------6-------6---3--|----3-----------8-------8------| 
D|2-------2-------7-------7---4--|----4-----------9-------9------|
A|2-------2-------7-------7---4--|----4-----------9-------9------|
E|0-------0-------5-------5---2--|----2-----------7-------7------|




  E               A               F#              B
e|0------ 0------ 0------ 0------|2------ 2------ 2------ 2------|
B|0-------0-------2-------2------|2-------2-------4-------4------|
G|1-------1-------2-------2------|3-------3-------4-------4------|
D|2-------2-------2-------2------|4-------4-------4-------4------|
A|2-------2-------0-------0------|4-------4-------2-------2------|
E|0-------0----------------------|2-------2----------------------|
  Busy    every   tuesday 
e|0------ 0------ 5------ 5---2--|----2-- ------- 7------ 7------|   
B|0-------0-------5-------5---2--|----2-----------7-------7------|
G|1-------1-------6-------6---3--|----3-----------8-------8------|  
D|2-------2-------7-------7---4--|----4-----------9-------9------|
A|2-------2-------7-------7---4--|----4-----------9-------9------|
E|0-------0-------5-------5---2--|----2-----------7-------7------|

             


  E               A               F#              B
e|0------ 0------ 0------ 0------|2------ 2------ 2------ 2------|
B|0-------0-------2-------2------|2-------2-------4-------4------|
G|1-------1-------2-------2------|3-------3-------4-------4------|
D|2-------2-------2-------2------|4-------4-------4-------4------|
A|2-------2-------0-------0------|4-------4-------2-------2------|
E|0-------0----------------------|2-------2----------------------|
  Maybe   on a    friday 
e|0------ 0------ 5------ 5---2--|----2-- ------- 7------ 7------|   
B|0-------0-------5-------5---2--|----2-----------7-------7------|
G|1-------1-------6-------6---3--|----3-----------8-------8------|  
D|2-------2-------7-------7---4--|----4-----------9-------9------|
A|2-------2-------7-------7---4--|----4-----------9-------9------|
E|0-------0-------5-------5---2--|----2-----------7-------7------|

             


  Em
e|7------ ------- ------- -------|------- ------- ------- -------|
B|8------------------------------|-------------------------------|
G|9------------------------------|-------------------------------|
D|9------------------------------|-------------------------------|
A|7------------------------------|-------------------------------|
E|-------------------------------|-------------------------------|
  No
e|5------ ------- ------- -------|------- ------- ------- -------|
B|--------8---7---8---7---5---4--|5---4--------------------------|
G|-------------------------------|--------5-------4--------------|
D|-------------------------------|-------------------------------|
A|-------------------------------|-------------------------------|
E|-------------------------------|-------------------------------|




  Cdim.........
e|8------ 8---\-- 5------ 5---\--|2------ 2------ ------- -------|
B|7-------7---\---4-------4---\--|1-------1-------4-------4------|
G|8-------8---\---5-------5---\--|2-------2-------2-------2------|
D|7-------7---\---4-------4---\--|1-------1-------4-------4------|
A|-------------------------------|----------------3-------3------|
E|-------------------------------|-------------------------------|

e|5------ ------- ------- -------|------- ------- ------- -------|
B|--------8---7---8---7---5---4--|5---4--------------------------|
G|-------------------------------|--------5-------4--------------|
D|-------------------------------|-------------------------------|
A|-------------------------------|-------------------------------|
E|-------------------------------|-------------------------------|





  
e|8------ 8------ 5------ 5------|2------ 2------ ------- -------|
B|7-------7-------4-------4------|1-------1-------4-------4------|
G|8-------8-------5-------5------|2-------2-------2-------2------|
D|7-------7-------4-------4------|1-------1-------4-------4------|
A|-------------------------------|----------------3-------3------|
E|-------------------------------|-------------------------------|

e|5------ ------- ------- -------|------- ------- ------- -------|
B|--------8---7---8---7---5---4--|5---4--------------------------|
G|-------------------------------|--------5-------4--------------|
D|-------------------------------|-------------------------------|
A|-------------------------------|-------------------------------|
E|-------------------------------|-------------------------------|




  Em
e|7---7-- 7---7-- 7---7-- 7---7--|7---7-- 7---7-- 7---7-- 7---7--|
B|8---8---8---8---8---8---8---8--|8---8---8---8---8---8---8---8--|
G|9---9---9---9---9---9---9---9--|9---9---9---9---9---9---9---9--|
D|9---9---9---9---9---9---9---9--|9---9---9---9---9---9---9---9--|
A|-------------------------------|-------------------------------|
E|-------------------------------|-------------------------------|

e|----7-- ----7-- ----7-- ----7--|----7-- ----7-- ----7-- ----7--|
B|----7-------7-------7-------7--|----7-------7-------7-------7--|
G|----9-------9-------9-------9--|----9-------9-------9-------9--|
D|----9-------9-------9-------9--|----9-------9-------9-------9--|
A|-------------------------------|-------------------------------|
E|-------------------------------|-------------------------------|
      Bsus4



  Bsus4                           B
e|7---7-- 7---7-- 7---7-- 7---7--|7---7-- 7---7-- 7---7-- 7---7--|
B|7---7---7---7---7---7---7---7--|7---7---7---7---7---7---7---7--|
G|9---9---9---9---9---9---9---9--|8---8---8---8---8---8---8---8--|
D|9---9---9---9---9---9---9---9--|9---9---9---9---9---9---9---9--|
A|-------------------------------|-------------------------------|
E|-------------------------------|-------------------------------|

e|----7-- ----7-- ----7-- ----7--|----7-- ----7-- ----7-- ----7--|
B|----7-------7-------7-------7--|----7-------7-------7-------7--|
G|----9-------9-------9-------9--|----9-------9-------9-------9--|
D|----9-------9-------9-------9--|----9-------9-------9-------9--|
A|-------------------------------|-------------------------------|
E|-------------------------------|-------------------------------|     




  Em                              Bsus4           B
e|7------ 7------ 7------ 7------|7------ 7------ 7------ 7------|
B|8-------8-------8-------8------|7-------7-------7-------7------|
G|9-------9-------9-------9------|9-------9-------8-------8------|
D|9-------9-------9-------9------|9-------9-------9-------9------|
A|-------------------------------|-------------------------------|
E|-------------------------------|-------------------------------|
              But now I       see      
e|------- 7------ ------- 7------|------- 7------ ------- 7------|
B|--------7---------------7------|--------7---------------7------|
G|--------9---------------9------|--------9---------------9------|
D|--------9---------------9------|--------9---------------9------|
A|-------------------------------|-------------------------------|
E|-------------------------------|-------------------------------|




  Em                              Bsus4           B
e|7------ 7------ 7------ 7------|7------ 7------ 7------ 7------|
B|8-------8-------8-------8------|7-------7-------7-------7------|
G|9-------9-------9-------9------|9-------9-------8-------8------|
D|9-------9-------9-------9------|9-------9-------9-------9------|
A|-------------------------------|-------------------------------|
E|-------------------------------|-------------------------------|
             you're foolin'   me         
e|------- 7------ ------- 7------|------- 7------ ------- 7------|
B|--------7---------------7------|--------7---------------7------|
G|--------9---------------9------|--------9---------------9------|
D|--------9---------------9------|--------9---------------9------|
A|-------------------------------|-------------------------------|
E|-------------------------------|-------------------------------|




  Am                              Am7
e|5------ 5------ 5------ 5------|5------ 5------ 5------ 5------|
B|5-------5-------5-------5------|8-------8-------8-------8------|
G|5-------5-------5-------5------|5-------5-------5-------5------|
D|7-------7-------7-------7------|7-------7-------7-------7------|
A|-------------------------------|-------------------------------|
E|-------------------------------|-------------------------------|
              You only        want                someone     with                              
e|------- 7------ ------- 7------|------- 7------ ------- 7------|
B|--------7---------------7------|--------7---------------7------|
G|--------9---------------9------|--------9---------------9------|
D|--------9---------------9------|--------9---------------9------|
A|-------------------------------|-------------------------------|
E|-------------------------------|-------------------------------|




  B7      B       B7                      B       B7
e|------- ------- ------- 7------|------- ------- ------- 7------|
B10-------7------10------10------10-------7------10------10------|
G|8-------8-------8-------8------|8-------8-------8-------8------|
D|9-------9-------9-------9------|9-------9-------9-------9------|
A|-------------------------------|-------------------------------|
E|-------------------------------|-------------------------------|
  money
e|------- 7------ ------- 7------|------- 7------ ------- 7------|
B|--------7---------------7------|--------7---------------7------|
G|--------9---------------9------|--------9---------------9------|
D|--------9---------------9------|--------9---------------9------|
A|-------------------------------|-------------------------------|
E|-------------------------------|-------------------------------|   




  Em                              Bsus4           B
e|7------ ------- 7------ -------|7------ 7------ 7------ 7------|
B|8---------------8--------------|7-------7-------7-------7------|
G|9---------------9--------------|9-------9-------8-------8------|
D|9---------------9--------------|9-------9-------9-------9------|
A|-------------------------------|-------------------------------|
E|-------------------------------|-------------------------------|
              So  little      girl       
e|------- 7------ ------- 7------|------- 7------ ------- 7------|
B|--------7---------------7------|--------7---------------7------|
G|--------9---------------9------|--------9---------------9------|
D|--------9---------------9------|--------9---------------9------|
A|-------------------------------|-------------------------------|
E|-------------------------------|-------------------------------|




  Em                              Bsus4           B
e|7------ ------- 7------ -------|7------ 7------ 7------ 7------|
B|8---------------8--------------|7-------7-------7-------7------|
G|9---------------9--------------|9-------9-------8-------8------|
D|9---------------9--------------|9-------9-------9-------9------|
A|-------------------------------|-------------------------------|
E|-------------------------------|-------------------------------|
              I've had my     pill                      
e|------- 7------ ------- 7------|------- 7------ ------- 7------|
B|--------7---------------7------|--------7---------------7------|
G|--------9---------------9------|--------9---------------9------|
D|--------9---------------9------|--------9---------------9------|
A|-------------------------------|-------------------------------|
E|-------------------------------|-------------------------------|




  Am                              Am7             Am
e|5------ 5------ 5------ 5------|------- ------- 5------ -------|
B|5-------5-------5-------5------|8---------------5--------------|
G|5-------5-------5-------5------|5---------------5--------------|
D|7-------7-------7-------7------|7---------------7--------------|
A|-------------------------------|-------------------------------|
E|-------------------------------|-------------------------------|
              So  if you      want            me      you     can                      
e|------- 7------ ------- 7------|------- 7------ ------- 7------|
B|--------7---------------7------|--------7---------------7------|
G|--------9---------------9------|--------9---------------9------|
D|--------9---------------9------|--------9---------------9------|
A|-------------------------------|-------------------------------|
E|-------------------------------|-------------------------------|




  B7      B       B7      B       B7      B       B7       
e|7------ 7------ 7------ 7------|7------ 7------ 7------ 7------|
B10-------7------10-------7------10-------7------10------10------|
G|8-------8-------8-------8------|8-------8-------8-------8------|
D|9-------9-------9-------9------|9-------9-------9-------9------|
A|-------------------------------|-------------------------------|
E|-------------------------------|-------------------------------|
  call                            me  
e|------- 7------ ------- 7------|------- 7------ ------- 7------|
B|--------7---------------7------|--------7---------------7------|
G|--------9---------------9------|--------9---------------9------|
D|--------9---------------9------|--------9---------------9------|
A|-------------------------------|-------------------------------|
E|-------------------------------|-------------------------------|  




  E               A               F#              B
e|0------ 0------ 0------ 0------|2------ 2------ 2------ 2------|
B|0-------0-------2-------2------|2-------2-------4-------4------|
G|1-------1-------2-------2------|3-------3-------4-------4------|
D|2-------2-------2-------2------|4-------4-------4-------4------|
A|2-------2-------0-------0------|4-------4-------2-------2------|
E|0-------0----------------------|2-------2----------------------|
  Call me any     monday. 
e|0------ 0------ 5------ 5---2--|----2-- ------- 7------ 7------|   
B|0-------0-------5-------5---2--|----2-----------7-------7------|
G|1-------1-------6-------6---3--|----3-----------8-------8------|  
D|2-------2-------7-------7---4--|----4-----------9-------9------|
A|2-------2-------7-------7---4--|----4-----------9-------9------|
E|0-------0-------5-------5---2--|----2-----------7-------7------|
         



  E               A               F#              B
e|0------ 0------ 0------ 0------|2------ 2------ 2------ 2------|
B|0-------0-------2-------2------|2-------2-------4-------4------|
G|1-------1-------2-------2------|3-------3-------4-------4------|
D|2-------2-------2-------2------|4-------4-------4-------4------|
A|2-------2-------0-------0------|4-------4-------2-------2------|
E|0-------0----------------------|2-------2----------------------|
  Busy    every   tuesday 
e|0---0-- 0------ 5------ 5---2--|----2-- ----2-- 7------ 7------|   
B|0---0---0-------5-------5---2--|----2-------2---7-------7------|
G|1---1---1-------6-------6---3--|----3-------3---8-------8------|  
D|2---2---2-------7-------7---4--|----4-------4---9-------9------|
A|2---2---2-------7-------7---4--|----4-------4---9-------9------|
E|0---0---0-------5-------5---2--|----2-------2---7-------7------|
              



  E               A               F#              B
e|0------ 0------ 0------ 0------|2------ 2------ 2------ 2------|
B|0-------0-------2-------2------|2-------2-------4-------4------|
G|1-------1-------2-------2------|3-------3-------4-------4------|
D|2-------2-------2-------2------|4-------4-------4-------4------|
A|2-------2-------0-------0------|4-------4-------2-------2------|
E|0-------0----------------------|2-------2----------------------|
  Maybe   on a    friday 
e|0------ 0------ 5------ 5---2--|----2-- ----7-- ----7-- -------|   
B|0-------0-------5-------5---2--|----2-------7-------7----------|
G|1-------1-------6-------6---3--|----3-------8-------8----------|  
D|2-------2-------7-------7---4--|----4-------9-------9----------|
A|2-------2-------7-------7---4--|----4-------9-------9----------|
E|0-------0-------5-------5---2--|----2-------7-------7----------|
            



  Em
e|7------ ------- ------- -------|------- ------- ------- -------|
B|8------------------------------|-------------------------------|
G|9------------------------------|-------------------------------|
D|9------------------------------|-------------------------------|
A|7------------------------------|-------------------------------|
E|-------------------------------|-------------------------------|
  No
e|5------ ------- ------- -------|------- ------- ------- -------|
B|--------8---7---8---7---5---4--|5---4--------------------------|
G|-------------------------------|--------5-------4--------------|
D|-------------------------------|-------------------------------|
A|-------------------------------|-------------------------------|
E|-------------------------------|-------------------------------|




  Cdim......
e|8------ 8------ 5------ 5------|2------ 2------ ------- -------|
B|7-------7-------4-------4------|1-------1-------4-------4------|
G|8-------8-------5-------5------|2-------2-------2-------2------|
D|7-------7-------4-------4------|1-------1-------4-------4------|
A|-------------------------------|----------------3-------3------|
E|-------------------------------|-------------------------------|

e|5------ ------- ------- -------|------- ------- ------- -------|
B|--------8---7---8---7---5---4--|5---4--------------------------|
G|-------------------------------|--------5-------4--------------|
D|-------------------------------|-------------------------------|
A|-------------------------------|-------------------------------|
E|-------------------------------|-------------------------------|





e|8------ 8------ 5------ 5------|2------ 2------ ------- -------|
B|7-------7-------4-------4------|1-------1-------4-------4------|
G|8-------8-------5-------5------|2-------2-------2-------2------|
D|7-------7-------4-------4------|1-------1-------4-------4------|
A|-------------------------------|----------------3-------3------|
E|-------------------------------|-------------------------------|

e|5------ ------- ------- -------|------- ------- ------- -------|
B|--------8---7---8---7---5---4--|5---4--------------------------|
G|-------------------------------|--------5-------4--------------|
D|-------------------------------|-------------------------------|
A|-------------------------------|-------------------------------|
E|-------------------------------|-------------------------------|





e|8------ 8------ 5------ 5------|2------ 2------ ------- -------|
B|7-------7-------4-------4------|1-------1-------4-------4------|
G|8-------8-------5-------5------|2-------2-------2-------2------|
D|7-------7-------4-------4------|1-------1-------4-------4------|
A|-------------------------------|----------------3-------3------|
E|-------------------------------|-------------------------------|

e|5------ ------- ------- -------|------- ------- ------- -------|
B|--------8---7---8---7---5---4--|5---4--------------------------|
G|-------------------------------|--------5-------4--------------|
D|-------------------------------|-------------------------------|
A|-------------------------------|-------------------------------|
E|-------------------------------|-------------------------------|
  ...........................Fade out............................ 




e|8------ 8------ 5------ 5------|2------ 2------ ------- -------|
B|7-------7-------4-------4------|1-------1-------4-------4------|
G|8-------8-------5-------5------|2-------2-------2-------2------|
D|7-------7-------4-------4------|1-------1-------4-------4------|
A|-------------------------------|----------------3-------3------|
E|-------------------------------|-------------------------------|

e|5------ ------- ------- -------|------- ------- ------- -------|
B|--------8---7---8---7---5---4--|5---4--------------------------|
G|-------------------------------|--------5-------4--------------|
D|-------------------------------|-------------------------------|
A|-------------------------------|-------------------------------|
E|-------------------------------|-------------------------------|
  ...............................................................
  









        B  Bend
        R  Release
        /  Slide up
        \  Slide down
        H  Hammer-on
        P  Pull-off
        ~  Vibrato
        +  Harmonic
        x  Mute note
        .  Play note like a dot in standard notation
        ^  Ties two notes together
        (. Pause
        *  Strum upwards





Comments


Popular Easybeats tabs & chords
Friday On My Mind 1 Bass Tabs
Friday On My Mind 3 Bass Tabs
Friday On My Mind 2 Chords
St Louis Chords
Ill Make You Happy 1 Tabs
Made My Bed Gonna Lie In It Tabs
Pretty Girl Tabs
Cry Cry Cry Ukulele
River Deep Mountain High Ukulele
St Louis Ukulele


Song lyrics



↑ Back to top | Tablatures and chords are parodies/interpretations of the original songs. You may use it for private study, scholarship, research or language learning purposes only
© 2014 AZChords.com Contact us | Privacy policy | DMCA | Add/correct tabs | Request tabs | Top 50 tabs