>
 >
Pretty Girl

Pretty Girl Guitar Tabs

Easybeats - Pretty Girl chords, tabs, tablatures, lyrics

Guitar lessons | Add/correct | Request | Top 50 tabs Artists:  A B C D E F G H I J K L M N O P Q R S T U V W X Y Z 0-9

Pretty Girl Guitar Tabs – Easybeats

CD, Sheet music, Poster

Do you like Pretty Girl? Share with your friends now
Tabs
------------------------------------------------------------------

  THE EASYBEATS - PRETTY GIRL (Vanda/Young) From FRIDAY OF MY MIND 
                  album. Released in 1967. 

------------------------------------------------------------------







Pretty girl Walks up and down the street
Pretty girl Kind of girl I'd like to meet
She don't even know my name
Shame 
But it wouldn't be right just to walk up to her
And I wouldn't feel like just to stand back while a

Pretty girl Walks up and down the street
Pretty girl Kind of girl I'd like to meet
She don't even know my name. Shame 

She's got great blue eyes and long blonde hair
The kind of girl that makes you feel you're walking on air
She's got great blue eyes and long blonde hair
The kind of girl that everybody stops and stares

Wouln't she, wouldn't she, wouldn't she
Yeah

Pretty girl Won't you make time with me
Pretty girl Walk out of sight with me
I don't even know your name. Jane 

She's got great blue eyes and long blonde hair
The kind of girl that makes you feel you're walking on air
She's got great blue eyes and long blonde hair
The kind of girl that everybody stops and stares

Asking you, want you to, say you do
Yeah

Pretty girl, pretty girl, pretty girl...






                                     
  G
e|------- ----7-- ----7-- ----7--|----7-- ----7-- ----7-- -------|
B|------------8-------8-------8--|----8-------8-------8----------|
G|7-------7-------7-------7------|7-------7-------7-------7------|
D|5-------5-------5-------5------|5-------5-------5-------5------|
A|-------------------------------|-------------------------------|
E|-------------------------------|-------------------------------|
  Pretty girl                     Walks up and down   the street



  F
e|----5-- ----5-- ----5-- ----5--|----5-- ----5-- ----5-- -------|
B|----6-------6-------6-------6--|----6-------6-------6----------|
G|5-------5-------5-------5------|5-------5-------5-------5------|
D|3-------3-------3-------3------|3-------3-------3-------3------|
A|-------------------------------|-------------------------------|
E|-------------------------------|-------------------------------|
  Pretty girl                     Kind of girl I'd    like    to 


  Em
e|----3-- ----3-- ----3-- ----3--|----3-- ----3-- ----3-- -------|
B|----0-------0-------0-------0--|----0-------0-------0----------|
G|0-------0-------0-------0------|0-------0-------0-------0------|
D|2-------2-------2-------2------|2-------2-------2-------2------|
A|-------------------------------|-------------------------------|
E|-------------------------------|-------------------------------|
  meet                        She don't even  know    my      name


  B                               G
e|----2-- ----2-- ----2-- 2------|3---3-- 3---3-- 3---3-- 3------|
B|----4-------4-------4---4------|3---3---3---3---3---3---3---0--|
G|----4-------4-------4---4------|4---4---4---4---4---4---4---0--|
D|4-------4-------4-------4------|5---5---5---5---5---5---5---0--|
A|2-------2-------2-------2------|5---5---5---5---5---5---5------|
E|-------------------------------|3---3---3---3---3---3---3------|
                                  Shame                   But it 


  Am                              B
e|0---0-- 0---0-- 0---0-- 0------|2---2-- 2---2-- 2---2-- 2---2--|
B|1---1---1---1---1---1---1---0--|4---4---4---4---4---4---4---4--|
G|2---2---2---2---2---2---2---0--|4---4---4---4---4---4---4---4--|
D|2---2---2---2---2---2---2---0--|4---4---4---4---4---4---4---4--|
A|0---0---0---0---0---0---0------|2---2---2---2---2---2---2---2--|
E|-------------------------------|-------------------------------|
  wouldn't be right       just to walk up to  her         And I
e|8------ ------- ------- -------11------ ------- ------- -------|
B10------------------------------12------------------------------|
G|9------------------------------11------------------------------|
D|-------------------------------|-------------------------------|
A|-------------------------------|-------------------------------|
E|-------------------------------|-------------------------------|



  C                               D               D+5
e|3---3-- 3---3-- 3---3-- 3------|2------ 2------ 2------ 2------|
B|5---5---5---5---5---5---5---0--|3-------3-------3-------3------|
G|5---5---5---5---5---5---5---0--|2-------2-------3-------3------|
D|5---5---5---5---5---5---5---0--|0-------0-------0-------0------|
A|3---3---3---3---3---3---3------|-------------------------------|
E|-------------------------------|-------------------------------|
  wouldn't feel like      just to stand   back    while   a
e12------ ------- ------- -------14------ -------14------ -------|
B13------------------------------15--------------15--------------|
G12------------------------------14--------------15--------------|
D|-------------------------------|-------------------------------|
A|-------------------------------|-------------------------------|
E|-------------------------------|-------------------------------|



  G
e|----7-- ----7-- ----7-- ----7--|----7-- ----7-- ----7-- -------|
B|----8-------8-------8-------8--|----8-------8-------8----------|
G|7-------7-------7-------7------|7-------7-------7-------7------|
D|5-------5-------5-------5------|5-------5-------5-------5------|
A|-------------------------------|-------------------------------|
E|-------------------------------|-------------------------------|
  Pretty girl                     Walks up and down   the street
e|3---3-- 3---3-- ------- -------|3-----3 3---3-- ----3-- 3------|
B|3---3---3---3------------------|3-----3-3---3-------3---3------|
G|0---0---0---0------------------|0-----0-0---0-------0---0------|
D|5---5---5---5------------------|5-----5-5---5-------5---5------|
A|-------------------------------|-------------------------------|
E|-------------------------------|-------------------------------|
  G5


  F
e|----5-- ----5-- ----5-- ----5--|------- ----5-- ----5-- -------|
B|----6-------6-------6-------6--|------------6-------6----------|
G|5-------5-------5-------5------|5-------5-------5-------5------|
D|3-------3-------3-------3------|3-------3-------3-------3------|
A|-------------------------------|-------------------------------|
E|-------------------------------|-------------------------------|
   Pretty girl                     Kind of girl I'd    like    to 
e|3---3-- 3---3-- ------- -------|3-----3 3---3-- ----3-- -------|
B|1---1---1---1------------------|1-----1-1---1-------1----------|
G|0---0---0---0------------------|0-----0-0---0-------0----------|
D|3---3---3---3------------------|3-----3-3---3-------3----------|
A|-------------------------------|-------------------------------|
E|-------------------------------|-------------------------------|
  Fsus2


  Em
e|----3-- ----3-- ----3-- ----3--|----3-- ----0-- ------- 0------|
B|----0-------0-------0-------0--|----0-------0-----------0------|
G|0-------0-------0-------0------|0-------0---0-----------0------|
D|2-------2-------2-------2------|2-------2---2-----------2------|
A|-------------------------------|-------------------------------|
E|-------------------------------|-------------------------------|
  meet                        She don't even  know    my      name
e|3-----3 3---3-- ----3-- -------|3-----3 3---3-- ------- -------|
B|0-----0-0---0-------0----------|0-----0-0---0------------------|
G|0-----0-0---0-------0----------|0-----0-0---0------------------|
D|2-----2-2---2-------2----------|2-----2-2---2------------------|
A|2-----2-2---2-------2----------|2-----2-2---2------------------|
E|0-----0-0---0-------0----------|0-----0-0---0------------------|
  


  B                               G
e|2---2-- 2---2-- 2---2-- 2------|3---3-- 3---3-- 3---3-- 3------|
B|4---4---4---4---4---4---4------|3---3---3---3---3---3---3------|
G|4---4---4---4---4---4---4------|4---4---4---4---4---4---4------|
D|4---4---4---4---4---4---4------|5---5---5---5---5---5---5------|
A|2---2---2---2---2---2---2------|5---5---5---5---5---5---5------|
E|-------------------------------|3---3---3---3---3---3---3------|
                                  Shame                       She's  
e|7-----7 7---7-- ----7-- 7------|3-----3 3---3-- ----3-- 3------|
B|7-----7-7---7-------7---7------|3-----3-3---3-------3---3------|
G|8-----8-8---8-------8---8------|4-----4-4---4-------4---4------|
D|9-----9-9---9-------9---9------|5-----5-5---5-------5---5------|
A|9-----9-9---9-------9---9------|5-----5-5---5-------5---5------|
E|7-----7-7---7-------7---7------|3-----3-3---3-------3---3------|
                                  


  B7  B                           B7  B
e|7---7-- 7---7-- 7---7-- 7---7--|7---7-- 7---7-- 7---7-- 7------|
B10---7---7---7---7---7---7---7--10---7---7---7---7---7---7------|
G|8---8---8---8---8---8---8---8--|8---8---8---8---8---8---8------|
D|9---9---9---9---9---9---9---9--|9---9---9---9---9---9---9------|
A|9---9---9---9---9---9---9---9--|9---9---9---9---9---9---9------|
E|7---7---7---7---7---7---7---7--|7---7---7---7---7---7---7------|
  got     great   blue eyes   and long blonde hair            The
          God                     what a  way to  wake up
e|------- 7---7-- ----7-- 7------|------- 7---7-- ----7-- 7------|
B|--------7---7-------7---7------|--------7---7-------7---7------|
G|--------8---8-------8---8------|--------8---8-------8---8------|
D|--------9---9-------9---9------|--------9---9-------9---9------|
A|--------9---9-------9---9------|--------9---9-------9---9------|
E|--------7---7-------7---7------|--------7---7-------7---7------|



  B7  B                       B7      B
e|7---7-- 7---7-- 7---7-- 7---7--|7---7-- 7---7-- 7---7-- 7---7--|
B10---7---7---7---7---7---7--10--10---7---7---7---7---7---7---7--|
G|8---8---8---8---8---8---8---8--|8---8---8---8---8---8---8---8--|
D|9---9---9---9---9---9---9---9--|9---9---9---9---9---9---9---9--|
A|9---9---9---9---9---9---9---9--|9---9---9---9---9---9---9---9--|
E|7---7---7---7---7---7---7---7--|7---7---7---7---7---7---7---7--|
  kind of girl that               walking on air              She's
                  makes you 
                          feel you're
                  Look at     me
e|------- 7---7-- ----7-- 7------|------- 7---7-- ----7-- 7------|
B|--------7---7-------7---7------|--------7---7-------7---7------|
G|--------8---8-------8---8------|--------8---8-------8---8------|
D|--------9---9-------9---9------|--------9---9-------9---9------|
A|--------9---9-------9---9------|--------9---9-------9---9------|
E|--------7---7-------7---7------|--------7---7-------7---7------|



  B7      B                       B7      B                   B7
e|7---7-- 7---7-- 7---7-- 7------|7---7-- 7---7-- 7---7-- 7---7--|
B10--10---7---7---7---7---7------10--10---7---7---7---7---7--10--|
G|8---8---8---8---8---8---8------|8---8---8---8---8---8---8---8--|
D|9---9---9---9---9---9---9------|9---9---9---9---9---9---9---9--|
A|9---9---9---9---9---9---9------|9---9---9---9---9---9---9---9--|
E|7---7---7---7---7---7---7------|7---7---7---7---7---7---7---7--|
  got     great   blue eyes   and long blonde hair            The
          God                     while I wait to ask her
e|------- 7---7-- ----7-- 7------|------- 7---7-- ----7-- 7------|
B|--------7---7-------7---7------|--------7---7-------7---7------|
G|--------8---8-------8---8------|--------8---8-------8---8------|
D|--------9---9-------9---9------|--------9---9-------9---9------|
A|--------9---9-------9---9------|--------9---9-------9---9------|
E|--------7---7-------7---7------|--------7---7-------7---7------|



      B                       B7      B
e|7---7-- 7---7-- 7---7-- 7---7--|7---7-- 7---7-- 7---7-- 7------|
B10---7---7---7---7---7---7--10--10---7---7---7---7---7---7------|
G|8---8---8---8---8---8---8---8--|8---8---8---8---8---8---8------|
D|9---9---9---9---9---9---9---9--|9---9---9---9---9---9---9------|
A|9---9---9---9---9---9---9---9--|9---9---9---9---9---9---9------|
E|7---7---7---7---7---7---7---7--|7---7---7---7---7---7---7------|
  kind of girl that everybody     stops and   stares
          Will she walk with  me?
e|------- 7---7-- ----7-- 7------|------- 7------ ----7-- 7------|
B|--------7---7-------7---7------|--------7-----------7---7------|
G|--------8---8-------8---8------|--------8-----------8---8------|
D|--------9---9-------9---9------|--------9-----------9---9------|
A|--------9---9-------9---9------|--------9-----------9---9------|
E|--------7---7-------7---7------|--------7-----------7---7------|



  A
e|5---5-- 5---5-5 5---5-- 5---5--|5---5-- 5---5-5 5---5-- 5------|
B|5---5---5---5-5-5---5---5---5--|5---5---5---5-5-5---5---5------|
G|6---6---6---6-6-6---6---6---6--|6---6---6---6-6-6---6---6------|
D|7---7---7---7-7-7---7---7---7--|7---7---7---7-7-7---7---7------|
A|7---7---7---7-7-7---7---7---7--|7---7---7---7-7-7---7---7------|
E|5---5---5---5-5-5---5---5---5--|5---5---5---5-5-5---5---5------|
  Wouln't     she, 
e|------- 5---5-- ------- 5------|------- 5---5-- ----5-- 5------|
B|--------5---5-----------5------|--------5---5-------5---5------|
G|--------6---6-----------6------|--------6---6-------6---6------|
D|--------7---7-----------7------|--------7---7-------7---7------|
A|--------7---7-----------7------|--------7---7-------7---7------|
E|--------5---5-----------5------|--------5---5-------5---5------|



  Dbm
e|4---4-- 4---4-4 4---4-- 4---4--|4---4-- 4---4-4 4---4-- 4---4--|
B|5---5---5---5-5-5---5---5---5--|5---5---5---5-5-5---5---5---5--|
G|6---6---6---6-6-6---6---6---6--|6---6---6---6-6-6---6---6---6--|
D|6---6---6---6-6-6---6---6---6--|6---6---6---6-6-6---6---6---6--|
A|4---4---4---4-4-4---4---4---4--|4---4---4---4-4-4---4---4---4--|
E|-------------------------------|-------------------------------|
  Wouldn't she, 
e|------- 9---9-- ------- 9------|------- 9---9-- ----9-- 9------|
B|--------9---9-----------9------|--------9---9-------9---9------|
G|--------9---9-----------9------|--------9---9-------9---9------|
D|-------11--11----------11------|-------11--11------11--11------|
A|-------11--11----------11------|-------11--11------11--11------|
E|--------9---9-----------9------|--------9---9-------9---9------|



  Dbsus4      Db
e|4---4-- 4---4-- 4---4-- 4---4--|4---4-- 4---4-- 4---4-- 4------|
B|7---7---7---6---6---6---6---6--|6---6---6---6---6---6---6---4--|
G|6---6---6---6---6---6---6---6--|6---6---6---6---6---6---6---4--|
D|6---6---6---6---6---6---6---6--|6---6---6---6---6---6---6---4--|
A|4---4---4---4---4---4---4---4--|4---4---4---4---4---4---4---4--|
E|-------------------------------|-------------------------------|
  Wouldn't she
e|------- 9---9-- ------- 9------|------- 9---9-- ------- 9------|
B|--------9---9-----------9------|--------9---9-----------9------|
G|-------10--10----------10------|-------10--10----------10------|
D|-------11--11----------11------|-------11--11----------11------|
A|-------11--11----------11------|-------11--11----------11------|
E|--------9---9-----------9------|--------9---9-----------9------|



  Ab
e|4------ ------- ------- -------|------- ------- ------- -------|
B|4------------------------------|-------------------------------|
G|5------------------------------|-------------------------------|
D|6------------------------------|-------------------------------|
A|6------------------------------|-------------------------------|
E|4------------------------------|-------------------------------|
  Yeah
e|4------ ------- ------- -------|------- ------- ------- -------|
B|4------------------------------|-------------------------------|
G|5------------------------------|-------------------------------|
D|6------------------------------|-------------------------------|
A|6------------------------------|-------------------------------|
E|4------------------------------|-------------------------------|



  D
e|2---2-- 2---2-- 2---2-- 2------|
B|3---3---3---3---3---3---3------|
G|2---2---2---2---2---2---2------|
D|0---0---0---0---0---0---0------|
A|-------------------------------|
E|-------------------------------|

e10--10--10--10--10--10--10------|
B10--10--10--10--10--10--10------|
G11--11--11--11--11--11--11------|
D|0---0---0---0---0---0---0------|
A|-------------------------------|
E|-------------------------------|



  G
e|----7-- ----7-- ------- -------|----7-- ----7-- ----7-- -------|    
B|----8-------8-----------x------|----8-------8-------8----------|
G|7-------7---------------x------|7-------7-------7-------7------|
D|5-------5---------------x------|5-------5-------5-------5------|
A|-------------------------------|-------------------------------|
E|-------------------------------|-------------------------------|
  Pretty girl                     Won't you make time with me
e|3---3-- 3---3-- ------- -------|3---3-- 3---3-- ------- -------|
B|3---3---3---3------------------|3---3---3---3------------------|
G|0---0---0---0------------------|0---0---0---0------------------|
D|5---5---5---5------------------|5---5---5---5------------------|
A|-------------------------------|-------------------------------|
E|-------------------------------|-------------------------------|
  G5


  F
e|----5-- ----5-- ------- -------|----5-- ----5-- ----5-- -------|
B|----6-------6------------------|----6-------6-------6----------|
G|5-------5----------------------|5-------5-------5-------5------|
D|3-------3----------------------|3-------3-------3-------3------|
A|-------------------------------|-------------------------------|
E|-------------------------------|-------------------------------|
  Pretty girl                     walk out of sight       with 
e|3---3-- 3---3-- ------- -------|3---3-- 3---3-- ------- -------|
B|1---1---1---1------------------|1---1---1---1------------------|
G|0---0---0---0---0---0---0---0--|0---0---0---0---0---0---0------|
D|3---3---3---3---3---3---3---3--|3---3---3---3---3---3---3------|
A|-------------------------------|-------------------------------|
E|-------------------------------|-------------------------------|
  Fsus2


  Em
e|----3-- ----3-- ----3-- ----3--|----3-- ----3-- ----3-- -------|
B|----0-------0-------0-------0--|----0-------0-------0---0------|
G|0-------0---------------0------|0-------0-------0-------0------|
D|2-------2---------------2------|2-------2-------2-------2------|
A|-------------------------------|-------------------------------|
E|-------------------------------|-------------------------------|
  me                          I   don't even  know    your    name
e|3---3-- 3---3-- ----3-- ----3--|3---3-- 3---3-- ----3-- 3------|
B|0---0---0---0-------0-------0--|0---0---0---0-------0---0------|
G|0---0---0---0-------0-------0--|0---0---0---0-------0---0------|
D|2---2---2---2-------2-------2--|2---2---2---2-------2---2------|
A|2---2---2---2-------2-------2--|2---2---2---2-------2---2------|
E|0---0---0---0-------0-------0--|0---0---0---0-------0---0------|



  B                               G
e|2---2-- 2---2-- 2---2-- 2------|3---3-- 3---3-- 3---3-- 3------|
B|4---4---4---4---4---4---4------|3---3---3---3---3---3---3------|
G|4---4---4---4---4---4---4------|4---4---4---4---4---4---4------|
D|4---4---4---4---4---4---4------|5---5---5---5---5---5---5------|
A|2---2---2---2---2---2---2------|5---5---5---5---5---5---5------|
E|-------------------------------|3---3---3---3---3---3---3------|
                                  Jane                       She's  
e|7-----7 7---7-- ----7-- 7------|3-----3 3---3-- ----3-- 3------|
B|7-----7-7---7-------7---7------|3-----3-3---3-------3---3------|
G|8-----8-8---8-------8---8------|4-----4-4---4-------4---4------|
D|9-----9-9---9-------9---9------|5-----5-5---5-------5---5------|
A|9-----9-9---9-------9---9------|5-----5-5---5-------5---5------|
E|7-----7-7---7-------7---7------|3-----3-3---3-------3---3------|
                                  


  B7  B                           B7      B
e|7---7-- 7---7-- 7---7-- 7---7--|7---7-- 7---7-- 7---7-- 7---7--|
B10---7---7---7---7---7---7---7--10--10---7---7---7---7---7---7--|
G|8---8---8---8---8---8---8---8--|8---8---8---8---8---8---8---8--|
D|9---9---9---9---9---9---9---9--|9---9---9---9---9---9---9---9--|
A|9---9---9---9---9---9---9---9--|9---9---9---9---9---9---9---9--|
E|7---7---7---7---7---7---7---7--|7---7---7---7---7---7---7---7--|
  got     great   blue eyes   and long blonde hair            The
          God                 I'd like to go      dancing
e|------- 7---7-- ------- 7------|------- 7---7-- ----7-- 7------|
B|--------7---7-----------7------|--------7---7-------7---7------|
G|--------8---8-----------8------|--------8---8-------8---8------|
D|--------9---9-----------9------|--------9---9-------9---9------|
A|--------9---9-----------9------|--------9---9-------9---9------|
E|--------7---7-----------7------|--------7---7-------7---7------|



  B7      B                       B7      B
e|7---7-- 7---7-- 7---7-- 7---7--|7---7-- 7---7-- 7---7-- 7---7--|
B10--10---7---7---7---7---7---7--10--10---7---7---7---7---7---7--|
G|8---8---8---8---8---8---8---8--|8---8---8---8---8---8---8---8--|
D|9---9---9---9---9---9---9---9--|9---9---9---9---9---9---9---9--|
A|9---9---9---9---9---9---9---9--|9---9---9---9---9---9---9---9--|
E|7---7---7---7---7---7---7---7--|7---7---7---7---7---7---7---7--|
  kind of girl that               walking on air              She's
                  makes you 
                          feel you're
         With that girl I     knew
e|------- 7---7-- ------- 7------|------- 7---7-- ----7-- 7------|
B|--------7---7-----------7------|--------7---7-------7---7------|
G|--------8---8-----------8------|--------8---8-------8---8------|
D|--------9---9-----------9------|--------9---9-------9---9------|
A|--------9---9-----------9------|--------9---9-------9---9------|
E|--------7---7-----------7------|--------7---7-------7---7------|



  B7  B                           B7      B
e|7---7-- 7---7-- 7---7-- 7---7--|7---7-- 7---7-- 7---7-- 7---7--|
B10---7---7---7---7---7---7---7--10--10---7---7---7---7---7---7--|
G|8---8---8---8---8---8---8---8--|8---8---8---8---8---8---8---8--|
D|9---9---9---9---9---9---9---9--|9---9---9---9---9---9---9---9--|
A|9---9---9---9---9---9---9---9--|9---9---9---9---9---9---9---9--|
E|7---7---7---7---7---7---7---7--|7---7---7---7---7---7---7---7--|
  got     great   blue eyes   and long blonde hair            The
          God                    What? You take a chance or..?
e|------- 7---7-- ------- 7------|------- 7---7-- ----7-- 7------|
B|--------7---7-----------7------|--------7---7-------7---7------|
G|--------8---8-----------8------|--------8---8-------8---8------|
D|--------9---9-----------9------|--------9---9-------9---9------|
A|--------9---9-----------9------|--------9---9-------9---9------|
E|--------7---7-----------7------|--------7---7-------7---7------|



  B7  B                           B7      B
e|7---7-- 7---7-- 7---7-- 7---7--|7---7-- 7---7-- 7---7-- 7------|
B10---7---7---7---7---7---7---7--10--10---7---7---7---7---7------|
G|8---8---8---8---8---8---8---8--|8---8---8---8---8---8---8------|
D|9---9---9---9---9---9---9---9--|9---9---9---9---9---9---9------|
A|9---9---9---9---9---9---9---9--|9---9---9---9---9---9---9------|
E|7---7---7---7---7---7---7---7--|7---7---7---7---7---7---7------|
  kind of girl that everybody     stops and   stares
                  Well, I'm   here
e|------- 7---7-- ------- 7------|------- 7---7-- ------- 7------|
B|--------7---7-----------7------|--------7---7-----------7------|
G|--------8---8-----------8------|--------8---8-----------8------|
D|--------9---9-----------9------|--------9---9-----------9------|
A|--------9---9-----------9------|--------9---9-----------9------|
E|--------7---7-----------7------|--------7---7-----------7------|



  A
e|5---5-- 5---5-5 5---5-- 5---5--|5---5-- 5---5-5 5---5-- 5------|
B|5---5---5---5-5-5---5---5---5--|5---5---5---5-5-5---5---5------|
G|6---6---6---6-6-6---6---6---6--|6---6---6---6-6-6---6---6------|
D|7---7---7---7-7-7---7---7---7--|7---7---7---7-7-7---7---7------|
A|7---7---7---7-7-7---7---7---7--|7---7---7---7-7-7---7---7------|
E|5---5---5---5-5-5---5---5---5--|5---5---5---5-5-5---5---5------|
   Asking you,
e|------- 5---5-- ------- 5------|------- 5---5-- ----5-- 5------|
B|--------5---5-----------5------|--------5---5-------5---5------|
G|--------6---6-----------6------|--------6---6-------6---6------|
D|--------7---7-----------7------|--------7---7-------7---7------|
A|--------7---7-----------7------|--------7---7-------7---7------|
E|--------5---5-----------5------|--------5---5-------5---5------|



  Dbm
e|4---4-- 4---4-4 4---4-- 4---4--|4---4-- 4---4-4 4---4-- 4------|
B|5---5---5---5-5-5---5---5---5--|5---5---5---5-5-5---5---5------|
G|6---6---6---6-6-6---6---6---6--|6---6---6---6-6-6---6---6------|
D|6---6---6---6-6-6---6---6---6--|6---6---6---6-6-6---6---6------|
A|4---4---4---4-4-4---4---4---4--|4---4---4---4-4-4---4---4------|
E|-------------------------------|-------------------------------|
  Want you to,  
e|------- 9---9-- ------- 9------|------- 9---9-- ----9-- 9------|
B|--------9---9-----------9------|--------9---9-------9---9------|
G|--------9---9-----------9------|--------9---9-------9---9------|
D|-------11--11----------11------|-------11--11------11--11------|
A|-------11--11----------11------|-------11--11------11--11------|
E|--------9---9-----------9------|--------9---9-------9---9------|



  Dbsus4      Db
e|4---4-- 4---4-4 4---4-- 4---4--|4---4-- 4---4-- 4---4-- 4------|
B|7---7---7---6-6-6---6---6---6--|6---6---6---6---6---6---6---4--|
G|6---6---6---6-6-6---6---6---6--|6---6---6---6---6---6---6---4--|
D|6---6---6---6-6-6---6---6---6--|6---6---6---6---6---6---6---4--|
A|4---4---4---4-4-4---4---4---4--|4---4---4---4---4---4---4---4--|
E|-------------------------------|-------------------------------|
  Say you do
e|------- 9---9-- ------- 9------|------- 9---9-- ------- 9------|
B|--------9---9-----------9------|--------9---9-----------9------|
G|-------10--10----------10------|-------10--10----------10------|
D|-------11--11----------11------|-------11--11----------11------|
A|-------11--11----------11------|-------11--11----------11------|
E|--------9---9-----------9------|--------9---9-----------9------|



  Ab
e|4------ ------- ------- -------|------- ------- ------- -------|
B|4------------------------------|-------------------------------|
G|5------------------------------|-------------------------------|
D|6------------------------------|-------------------------------|
A|6------------------------------|-------------------------------|
E|4------------------------------|-------------------------------|
  Yeah
e|4------ ------- ------- -------|------- ------- ------- -------|
B|4------------------------------|-------------------------------|
G|5------------------------------|-------------------------------|
D|6------------------------------|-------------------------------|
A|6------------------------------|-------------------------------|
E|4------------------------------|-------------------------------|



  D
e|2---2-- 2---2-- 2---2-- 2---0--|
B|3---3---3---3---3---3---3---0--|
G|2---2---2---2---2---2---2---0--|
D|0---0---0---0---0---0---0---0--|
A|-------------------------------|
E|-------------------------------|

e|5---5-- 5---5-- 5---5-- 5------|
B|7---7---7---7---7---7---7------|
G|7---7---7---7---7---7---7------|
D|0---0---0---0---0---0---0------|
A|-------------------------------|
E|-------------------------------|


  

  G
e|----7-- ----7-- ------- ----7--|----7-- ----7-- ----7-- -------|
B|----8-------8---------------8--|----8-------8-------8----------|
G|7-------7-------7---7----------|7-------7-------7-------7------|
D|5-------5-------5---5----------|5-------5-------5-------5------|
A|-------------------------------|-------------------------------|
E|-------------------------------|-------------------------------|
  Pretty girl
                  Pretty girl
                                  Pretty girl
e|3-----3 3---3-- ------- -------|3-----3 3---3-- ----3-- 3---3--|
B|3-----3-3---3------------------|3-----3-3---3-------3---3---3--|
G|0-----0-0---0------------------|0-----0-0---0-------0---0---0--|
D|5-----5-5---5------------------|5-----5-5---5-------5---5---5--|
A|-------------------------------|-------------------------------|
E|-------------------------------|-------------------------------|
  G5


  F
e|----5-- ----5-- ----5-- ----5--|----5-- ----5-- ----5-- -------|
B|----6-------6-------6-------6--|----6-------6-------6----------|
G|5-------5-------5-------5------|5-------5-------5-------5------|
D|3-------3-------3-------3------|3-------3-------3-------3------|
A|-------------------------------|-------------------------------|
E|-------------------------------|-------------------------------|
  Pretty girl
                  Pretty girl
                                  Pretty girl
e|3-----3 3---3-- ------- 3-----3|3-----3 3-----3 3-----3 3-----3|
B|1-----1-1---1-----------1-----1|1-----1-1-----1-1-----1-1-----1|
G|0-----0-0---0-----------0-----0|0-----0-0-----0-0-----0-0-----0|
D|3-----3-3---3-----------3-----3|3-----3-3-----3-3-----3-3-----3|
A|-------------------------------|-------------------------------|
E|-------------------------------|-------------------------------|
  Fsus2


  G
e|----7-- ----7-- ------- ----7--|----7-- ----7-- ----7-- -------|
B|----8-------8---------------8--|----8-------8-------8----------|
G|7-------7-------7---7---7------|7-------7-------7-------7------|
D|5-------5-------5---5---5------|5-------5-------5-------5------|
A|-------------------------------|-------------------------------|
E|-------------------------------|-------------------------------|
  Pretty girl
                  Pretty girl
                                  Pretty girl
e|3-----3 3---3-- ----3-- 3------|3-----3 3-----3 3-----3 3-----3|
B|3-----3-3---3-------3---3------|3-----3-3-----3-3-----3-3-----3|
G|0-----0-0---0-------0---0------|0-----0-0-----0-0-----0-0-----0|
D|5-----5-5---5-------5---5------|5-----5-5-----5-5-----5-5-----5|
A|-------------------------------|-------------------------------|
E|-------------------------------|-------------------------------|
  G5


  F
e|------- ----5-- ------- ----5--|----5-- ----5-- ----5-- -------|
B|------------6---------------6--|----6-------6-------6----------|
G|5-------5-------5-------5------|5-------5-------5-------5------|
D|3-------3-------3-------3------|3-------3-------3-------3------|
A|-------------------------------|-------------------------------|
E|-------------------------------|-------------------------------|
  Pretty girl
                  Pretty girl
                                  Pretty girl
e|3-----3 3---3-- ------- 3---3--|3-----3 3---3-- ----3-- 3------|
B|1-----1-1---1-----------1---1--|1-----1-1---1-------1---1------|
G|0-----0-0---0-----------0---0--|0-----0-0---0-------0---0------|
D|3-----3-3---3-----------3---3--|3-----3-3---3-------3---3------|
A|-------------------------------|-------------------------------|
E|-------------------------------|-------------------------------|
  Fsus2


  G
e|----7-- ----7-- ----7-- -------|----7-- ----7-- ----7-- -------|
B|----8-------8-------8----------|----8-------8-------8----------|
G|7-------7-------7-------7------|7-------7-------7-------7------|
D|5-------5-------5-------5------|5-------5-------5-------5------|
A|-------------------------------|-------------------------------|
E|-------------------------------|-------------------------------|
  Pretty girl
                  Pretty girl
                                  Pretty girl
e|3-----3 3-----3 3-----3 3-----3|3-----3 3---3-- ----3-- 3------|
B|3-----3-3-----3-3-----3-3-----3|3-----3-3---3-------3---3------|
G|0-----0-0-----0-0-----0-0-----0|0-----0-0---0-------0---0------|
D|5-----5-5-----5-5-----5-5-----5|5-----5-5---5-------5---5------|
A|-------------------------------|-------------------------------|
E|-------------------------------|-------------------------------|
  G5
  ..............................Fade.............................


  F
e|------- ----5-- ----5-- ----5--|----5-- ----5-- ----5-- -------|
B|------------6-------6-------6--|----6-------6-------6----------|
G|5-------5-------5-------5------|5-------5-------5-------5------|
D|3-------3-------3-------3------|3-------3-------3-------3------|
A|-------------------------------|-------------------------------|
E|-------------------------------|-------------------------------|
  Pretty girl
                  Pretty girl
                                  Pretty girl
e|3-----3 3---3-- ------- 3---3--|3-----3 3---3-- ------- 3------|
B|1-----1-1---1-----------1---1--|1-----1-1---1-----------1------|
G|0-----0-0---0-----------0---0--|0-----0-0---0-----------0------|
D|3-----3-3---3-----------3---3--|3-----3-3---3-----------3------|
A|-------------------------------|-------------------------------|
E|-------------------------------|-------------------------------|
  Fsus2
  ...............................................................
  







        B  Bend
        R  Release
        /  Slide up
        \  Slide down
        H  Hammer-on
        P  Pull-off
        ~  Vibrato
        +  Harmonic
        x  Mute note
        .  Play note like a dot in standard notation
        ^  Ties two notes together
        (. Pause





Comments


Popular Easybeats tabs & chords
Friday On My Mind 1 Bass Tabs
Friday On My Mind 4 Bass Tabs
Ill Make You Happy Bass Tabs
Friday On My Mind 1 Chords
St Louis Chords
Friday On My Mind Tabs
Goodtimes Tabs
Made My Bed Gonna Lie In It Tabs
Cry Cry Cry Ukulele
Friday On My Mind Ukulele


Song lyrics



↑ Back to top | Tablatures and chords are parodies/interpretations of the original songs. You may use it for private study, scholarship, research or language learning purposes only
© 2014 AZChords.com Contact us | Privacy policy | DMCA | Add/correct tabs | Request tabs | Top 50 tabs