» » »

Ill Make You Happy Tabs (ver.2)

Artists:  A B C D E F G H I J K L M N O P Q R S T U V W X Y Z # 

Ill Make You Happy Tabs (ver.2)

Easybeats
Rating:
0/5 (0 votes)

Hard to play? Try these video lessons and learn fast.
                The Easybeats - I'll Make You Happy

/ = one bar

Main riff (played on a 12 string guitar):
    Q    E  E  Q    E  E     Q    E  E  E  E  E  E    
E|------------------------|-------------------------|
B|------------------------|-------------------------|
G|------------------------|-------------------------|
D|------------------------|----------------6--------|
A|--7----7--5--7----7--5--|--7----7--5--7-----7--5--|
E|------------------------|-------------------------|

Intro (main riff 4 times; band enters on third):
/E / / / / / / /

Verse 1 (main riff is played where E chord is played):
/E / /      /
I,   I give,
/           /
I give you, I give you love,
 /              /              /                /
Give you lovin' all the time, give you kisses just like wine,
 /                  /                 /B                        /
Do his lips taste sweeter than mine, love (love), love (love), love?

Refrain 1:
/E              G     /A              B
 I'll make you happy, just like your mama wants,
/E              G     /A              B
 I'll make you happy, just like your daddy said,
/E              G     /A              B            /D /B
 I'll make you happy, just like your mama said to me.
/E /
(main riff 1x)

Verse 2 (same as verse 1):
If, if you,
If you don't, if you don't think,
If you don't think I'm your man, find somebody if you can,
Asking them to hold your hand, not me (me), me (me), me!

Refrain 2 (same as refrain 1):
I'll make you happy, just like your mama wants,
I'll make you happy, just like your daddy said,
I'll make you happy, just like your mama said to me.
/E / / / / / / /
(main riff 4x)

Guitar solo (played over E chord):
    W                   H        E  E  S  S E     E  E  H.            
E|-------------------|-------------------------|---------------------|
B|-------------------|-------------------------|---------------------|
G|-------------------|-------------------------|---------------------|
D|-------------------|-----------------7p-5----|--9--9--L------------|
A|--7----------------|--L--------L--7-------7--|---------------------|
E|-------------------|-------------------------|---------------------|


  H        E  E  Q       E  E  H.              H        E  E   S  S E   
----------------------|---------------------|--------------------------|
----------------------|---------------------|-----------------10p-8----|
-----------------7----|--9--9--L------------|--L--------L--9--------9--|
--L--------L--9-------|---------------------|--------------------------|
----------------------|---------------------|--------------------------|
----------------------|---------------------|--------------------------|


      E   E  H        E   S  S     W                 
-------------------------------|--------------------|
--10g12--12--L--------L--------|--12----------------|
-------------------------------|--------------------|
-------------------------14-14-|--------------------|
-------------------------------|--------------------|
-------------------------------|--------------------|

                                           |--------- 3/4 bar --------|
   S  S  S S  S  S  S S  S  S  S S S S S S    S S S S S S S S S S S S   
--12-12-12---11-11-11---10-10-10---9-9-9---|--8-8-8---7-7-7---6-6-6---|
-------------------------------------------|--------------------------|
-------------------------------------------|--------------------------|
-------------------------------------------|--------------------------|
-------------------------------------------|--------------------------|
-------------------------------------------|--------------------------|

Verse 3 (same as verse 1):
I, I give,
I give you, I give you love,
Give you lovin' all the time, give you kisses just like wine,
Do his lips taste sweeter than mine, love (love), love (love), love?

Refrain 3 (same as refrain 1):
I'll make you happy, just like your mama wants,
I'll make you happy, just like your daddy said,
I'll make you happy, just like your mama said to me.

Refrain 4 (same as refrain 1):
I'll make you happy, just like your mama wants,
I'll make you happy, just like your daddy said,
I'll make you happy, just like your mama said to me.

Outro:
  E                                    Asus4 A
    Q    E  E  Q    E  E     Q    Q    Q     Q      
E|------------------------|-----------------------|
B|------------------------|-----------------------|
G|------------------------|-----------------------|
D|------------------------|-----------------------|
A|--7----7--5--7----7--5--|--7----7---------------|
E|------------------------|-----------------------|

       /E
Aaaaaaaaaaaa...
            
Hard to play? Try these video lessons and learn fast. | Correct




comments powered by Disqus
↑ Back to top | Tablatures and chords are parodies/interpretations of the original songs. You may use it for private study, scholarship, research or language learning purposes only