>
 >
Ill Make You Happy

Ill Make You Happy Bass Tabs

Easybeats - Ill Make You Happy chords, tabs, tablatures, lyrics

Guitar lessons | Add/correct | Request | Top 50 tabs Artists:  A B C D E F G H I J K L M N O P Q R S T U V W X Y Z 0-9

Ill Make You Happy Bass Tabs – Easybeats

CD, Sheet music, Poster

Do you like Ill Make You Happy? Share with your friends now
Bass TabsTabsTabs v2
The Easybeats - I'll Make You Happy

Q=148
Intro:
     W                   W                   W                 
G||-------------------|-------------------|-------------------|
D||-------------------|-------------------|-------------------|
A||-------------------|-------------------|-------------------|
E||-------------------|-------------------|-------------------|


  H        Q    Q        Q    E  E  Q    E  E     Q    E  E  E  E  E  E   
----------------------|------------------------|-------------------------|
----------------------|------------------------|----------------6--------|
----------------2S----|--7----7--5--7----7--5--|--7----7--5--7-----7--5--|
----------------------|------------------------|-------------------------|


  Q    E  E  Q    E  E     Q    E  E  E  E  E  E    
------------------------|-------------------------|
------------------------|----------------6--------|
--7----7--5--7----7--5--|--7----7--5--7-----7--5--|
------------------------|-------------------------|

Verse 1:
    Q    E  E  Q    E  E     Q    E  E  E  E  E  E     Q    E  E  Q    E  E   
G|------------------------|-------------------------|------------------------|
D|------------------------|----------------6--------|------------------------|
A|--7----7--5--7----7--5--|--7----7--5--7-----7--5--|--7----7--5--7----7--5--|
E|------------------------|-------------------------|------------------------|


  Q    E  E  E  E  E  E     Q    E  E  Q    E  E     Q    E  E  E  E  E  E   
-------------------------|------------------------|-------------------------|
----------------6--------|------------------------|----------------6--------|
--7----7--5--7-----7--5--|--7----7--5--7----7--5--|--7----7--5--7-----7--5--|
-------------------------|------------------------|-------------------------|


  Q    E  E  Q    E  E     Q    E  E  E  E  E  E     Q    E  E  Q    E  E   
------------------------|-------------------------|------------------------|
------------------------|----------------6--------|------------------------|
--7----7--5--7----7--5--|--7----7--5--7-----7--5--|--7----7--5--7----7--5--|
------------------------|-------------------------|------------------------|


  Q    E  E  E  E  E  E     Q    E  E  Q    E  E     Q    E  E  E  E  E  E   
-------------------------|------------------------|-------------------------|
----------------6--------|------------------------|----------------6--------|
--7----7--5--7-----7--5--|--7----7--5--7----7--5--|--7----7--5--7-----7--5--|
-------------------------|------------------------|-------------------------|


  Q    E  E  Q    E  E     Q    E  E  E  E  E  E     E  E  E  E  E  E  E  E   
------------------------|-------------------------|--------------------------|
------------------------|----------------6--------|--------------------------|
--7----7--5--7----7--5--|--7----7--5--7-----7--5--|--------------------------|
------------------------|-------------------------|--7--7--7--7--7--7--7--7--|


  E  E  E  E  E  E  E  E    
--------------------------|
--------------------------|
-----------------------6--|
--7--7--7--7--7--7--9-----|

Refrain 1:
    Q    Q    E  E  Q        E  E  E  E  E  E  Q     
G|------------------------|-------------------------|
D|------------5--5--5S----|--7--7--7--7--9--7--5----|
A|--7----7----------------|-------------------------|
E|------------------------|-------------------------|


  E  E  E  E  E  E  Q        E  E  E  E  E  E  E  E     E  Q.     E  E  Q      
--------------------------|--------------------------|------------------------|
--------------5--5--5S----|--7--7--7--7--9--7--5--5--|------------5--5--5S----|
--7--7--7--7--------------|--------------------------|--7--7------------------|
--------------------------|--------------------------|------------------------|


  E  E  E  E  E  E  Q       E  E  E  E  E  E  E  E     E  E  E  E  E  E  E  E   
-------------------------|--------------------------|--------------------------|
--7--7--7--7--9--7--5----|--------------------------|--------------------------|
-------------------------|--5--5--5--5--5--7--5--5--|-----------------------6--|
-------------------------|--------------------------|--7--7--7--7--7--7--9-----|


  Q    E  E  Q    E  E     Q    E  E  E  E  E  E    
------------------------|-------------------------|
------------------------|----------------6--------|
--7----7--5--7----7--5--|--7----7--5--7-----7--5--|
------------------------|-------------------------|

Verse 2:
    Q    E  E  Q    E  E     Q    E  E  E  E  E  E     Q    E  E  Q    E  E   
G|------------------------|-------------------------|------------------------|
D|------------------------|----------------6--------|------------------------|
A|--7----7--5--7----7--5--|--7----7--5--7-----7--5--|--7----7--5--7----7--5--|
E|------------------------|-------------------------|------------------------|


  Q    E  E  E  E  E  E     Q    E  E  Q    E  E     Q    E  E  E  E  E  E   
-------------------------|------------------------|-------------------------|
----------------6--------|------------------------|----------------6--------|
--7----7--5--7-----7--5--|--7----7--5--7----7--5--|--7----7--5--7-----7--5--|
-------------------------|------------------------|-------------------------|


  Q    E  E  Q    E  E     Q    E  E  E  E  E  E     Q    E  E  Q    E  E   
------------------------|-------------------------|------------------------|
------------------------|----------------6--------|------------------------|
--7----7--5--7----7--5--|--7----7--5--7-----7--5--|--7----7--5--7----7--5--|
------------------------|-------------------------|------------------------|


  Q    E  E  E  E  E  E     Q    E  E  Q    E  E     Q    E  E  E  E  E  E   
-------------------------|------------------------|-------------------------|
----------------6--------|------------------------|----------------6--------|
--7----7--5--7-----7--5--|--7----7--5--7----7--5--|--7----7--5--7-----7--5--|
-------------------------|------------------------|-------------------------|


  Q    E  E  Q    E  E     Q    E  E  E  E  Q       E  E  E  E  E  E  E  E   
------------------------|------------------------|--------------------------|
------------------------|----------------6-------|--------------------------|
--7----7--5--7----7--5--|--7----7--5--7-----7----|--------------------------|
------------------------|------------------------|--7--7--7--7--7--7--7--7--|


  E  E  E  E  E  E  E  E    
--------------------------|
--------------------------|
-----------------------6--|
--7--7--7--7--7--7--9-----|

Refrain 2:
    E  E  E  E  E  E  Q        E  E  E  E  E  E  E  E   
G|--------------------------|--------------------------|
D|--------------5--5--5S----|--7--7--7--7--9--7--5--5--|
A|--7--7--7--7--------------|--------------------------|
E|--------------------------|--------------------------|


  E  E  E  E  E  E  Q        E  E  E  E  E  E  E  E   
--------------------------|--------------------------|
--------------5--5--5S----|--7--7--7--7--9--7--5--5--|
--7--7--7--7--------------|--------------------------|
--------------------------|--------------------------|


  E  E  E  E  E  E  Q        E  E  E  E  E  E  E  E   
--------------------------|--------------------------|
--------------5--5--5S----|--7--7--7--7--9--7--5--5--|
--7--7--7--7--------------|--------------------------|
--------------------------|--------------------------|


  E  E  E  E  E  E  E  E     E  E  E  E  E  E  E  E     E  E  Q    H         
--------------------------|--------------------------|----------------------|
--------------------------|--------------------------|----------------------|
--5--5--5--5--5--7--5--5--|-----------------------6--|--7-------------------|
--------------------------|--7--7--7--7--7--7--9-----|----------------------|


  W                   W                   H        Q    Q      
-------------------|-------------------|----------------------|
-------------------|-------------------|----------------------|
-------------------|-------------------|----------------2S----|
-------------------|-------------------|----------------------|


  E  E  E  E  E  E  E  E     E  E  E  E  E  E  E  E   
--------------------------|--------------------------|
--------------------------|--------------------------|
--7--7--7--7--7--7--7--7--|--7--7--7--7--7--7--7--7--|
--------------------------|--------------------------|


  E  E  E  E  E  E  E  E     E  E  E  E  E  E  E  E    
--------------------------|--------------------------|
--------------------------|--------------------------|
--7--7--7--7--7--7--7--7--|--7--7--7--7--7--7--7--7--|
--------------------------|--------------------------|

Guitar solo:
    Q.     E  E  Q    E     Q.     E  E  Q.        Q.     E  E  Q    E   
G|-----------------------|----------------------|-----------------------|
D|-----------------------|----------------------|-----------------------|
A|--7------7--7--7----7--|--7------7--7--7------|--7------7--7--7----7--|
E|-----------------------|----------------------|-----------------------|


  Q.     E  E  Q.        Q.     E  E  Q    E     E  Q    E  E  Q.      
----------------------|-----------------------|-----------------------|
----------------------|-----------------------|-----------------------|
--7------7--7--7------|--7------7--7--7----7--|--7--7----7--7--7------|
----------------------|-----------------------|-----------------------|


  E  Q    E  Q.     E     E  Q    E  E  Q.        E  E  Q    H         
-----------------------|-----------------------|----------------------|
-----------------------|-----------------------|----------------------|
--7--7----7--7------7--|--7--7----7--7--7------|--7-------------------|
-----------------------|-----------------------|----------------------|

|--- 3/4 bar ---|
  H        Q      
----------------|
----------------|
----------------|
----------------|

Verse 3:
    Q    E  E  Q    E  E     Q    E  E  E  E  E  E     Q    E  E  Q    E  E   
G|------------------------|-------------------------|------------------------|
D|------------------------|----------------6--------|------------------------|
A|--7----7--5--7----7--5--|--7----7--5--7-----7--5--|--7----7--5--7----7--5--|
E|------------------------|-------------------------|------------------------|


  Q    E  E  E  E  E  E     Q    E  E  Q    E  E     Q    E  E  E  E  E  E   
-------------------------|------------------------|-------------------------|
----------------6--------|------------------------|----------------6--------|
--7----7--5--7-----7--5--|--7----7--5--7----7--5--|--7----7--5--7-----7--5--|
-------------------------|------------------------|-------------------------|


  Q    E  E  Q    E  E     Q    E  E  E  E  E  E     Q    E  E  Q    E  E   
------------------------|-------------------------|------------------------|
------------------------|----------------6--------|------------------------|
--7----7--5--7----7--5--|--7----7--5--7-----7--5--|--7----7--5--7----7--5--|
------------------------|-------------------------|------------------------|


  Q    E  E  E  E  E  E     Q    E  E  Q    E  E     Q    E  E  E  E  E  E   
-------------------------|------------------------|-------------------------|
----------------6--------|------------------------|----------------6--------|
--7----7--5--7-----7--5--|--7----7--5--7----7--5--|--7----7--5--7-----7--5--|
-------------------------|------------------------|-------------------------|


  Q    E  E  Q    E  E     Q    E  E  E  E  E  E     E  E  E  E  E  E  E  E   
------------------------|-------------------------|--------------------------|
------------------------|----------------6--------|--------------------------|
--7----7--5--7----7--5--|--7----7--5--7-----7--5--|--------------------------|
------------------------|-------------------------|--7--7--7--7--7--7--7--7--|


  E  E  E  E  E  E  E  E    
--------------------------|
--------------------------|
-----------------------6--|
--7--7--7--7--7--7--9-----|

Refrain 3:
    E  E  E  E  E  E  Q        E  E  E  E  E  Q    E   
G|--------------------------|-------------------------|
D|--------------5--5--5S----|--7--7--7--7--9--7----5--|
A|--7--7--7--7--------------|-------------------------|
E|--------------------------|-------------------------|


  E  E  E  E  E  E  Q        E  E  E  E  E  E  E  E   
--------------------------|--------------------------|
--------------5--5--5S----|--7--7--7--7--9--7--5--5--|
--7--7--7--7--------------|--------------------------|
--------------------------|--------------------------|


  E  E  E  E  E  E  Q        E  E  E  E  E  E  E  E   
--------------------------|--------------------------|
--------------5--5--5S----|--7--7--7--7--9--7--5--5--|
--7--7--7--7--------------|--------------------------|
--------------------------|--------------------------|


  E  E  E  E  E  E  E  E     E  E  E  E  E  E  E  E    
--------------------------|--------------------------|
--------------------------|--------------------------|
--5--5--5--5--5--7--5--5--|-----------------------6--|
--------------------------|--7--7--7--7--7--7--9-----|

Refrain 4:
    E  E  E  E  E  E  Q        E  E  E  E  E  E  E  E   
G|--------------------------|--------------------------|
D|--------------5--5--5S----|--7--7--7--7--9--7--5--5--|
A|--7--7--7--7--------------|--------------------------|
E|--------------------------|--------------------------|


  E  E  E  E  E  E  Q        E  E  E  E  E  E  E  E   
--------------------------|--------------------------|
--------------5--5--5S----|--7--7--7--7--9--7--5--5--|
--7--7--7--7--------------|--------------------------|
--------------------------|--------------------------|


  E  E  E  E  E  E  Q        E  E  E  E  E  E  E  E   
--------------------------|--------------------------|
--------------5--5--5S----|--7--7--7--7--9--7--5--5--|
--7--7--7--7--------------|--------------------------|
--------------------------|--------------------------|


  E  E  E  E  E  E  E  E     E  E  E  E  E  E  E  E    
--------------------------|--------------------------|
--------------------------|--------------------------|
--5--5--5--5--5--7--5--5--|-----------------------6--|
--------------------------|--7--7--7--7--7--7--9-----|

Outro:
    Q    E  E  Q    E  E     Q    Q    H                      
G|------------------------|---------------------|-----------||
D|------------------------|---------------------|-----------||
A|--7----7--5--7----7--5--|--7----7----5--------|-----------||
E|------------------------|---------------------|-----------||

Duration Legend
---------------
W - whole
H - half
Q - quarter
E - 8th
S - 16th
T - 32nd
X - 64th
. - note dotted
|-n-|  - n-tuplets


Tablature Legend
----------------
L - tied note
x - dead note
g - grace note
(n) - ghost note
> - accentuded note
NH - natural harmonic
AH - artificial harmonic
TH - tapped harmonic
SH - semi harmonic
PH - pitch harmonic
h - hammer on
p - pull off
b - bend
br - bendRelease
pb - preBend
pbr - preBendRelease
brb - bendReleaseBend
\n/ - tremolo bar dip
\n - tremolo bar dive
-/n - tremolo bar Release up
/n\ - tremolo bar inverted dip
/n - tremolo bar return
-\n - tremolo bar Release down
S - shift slide
s - legato slide
/ -  slide into from below or out of upwards
\ -  slide into from above or out of downwards
~ - vibrato
W - wide vibrato
tr - trill
TP - tremolo picking
T - tapping
S - slap
P - pop
< - fade in
^ - brush up
v - brush down





Comments


Popular Easybeats tabs & chords
Cry Cry Cry Bass Tabs
Friday On My Mind 3 Bass Tabs
Cry Cry Cry Chords
Friday On My Mind Chords
River Deep Mountain High Chords
Do You Have A Soul Tabs
Heaven And Hell Tabs
Pretty Girl Tabs
River Deep Mountain High Ukulele
Sorry Ukulele


Song lyrics



↑ Back to top | Tablatures and chords are parodies/interpretations of the original songs. You may use it for private study, scholarship, research or language learning purposes only
© 2014 AZChords.com Contact us | Privacy policy | DMCA | Add/correct tabs | Request tabs | Top 50 tabs