» » »

Heaven And Hell Tabs (ver.1)

Artists:  A B C D E F G H I J K L M N O P Q R S T U V W X Y Z # 

Heaven And Hell Tabs (ver.1)

Easybeats
Rating:
5/5 (1 vote)

Hard to play? Try these video lessons and learn fast.
                 
-------------------------------------------------------------------

  THE EASYBEATS - HEAVEN AND HELL (Vanda/Young) Tenth single A side
                  Released in 1967. Also as FRIDAY ON MY MIND album
                  aditional track. Banned in the USA for the second
                  line of the lyrics. 

-------------------------------------------------------------------




 

Hell is knowing that your face has gone red
Discovering someone else in your bed 
Baby, baby,
This kind of love's bringing down this man

You've got me going between heaven and hell
The ups and downs of you has got me so I can stand up and yell
You did me wrong but I know you
Still there's no disputin' that you're out of sight

Hell, I'm drowning in the sea of despair
The world goes by but I'm not aware
Baby, baby,
This kind of love's bringing down this man

You've got me going between heaven and hell
The ups and downs of you has got me so I can stand up and yell
You treat me wrong but I know you
Still there's no disputin' that you're out of sight

Heaven is in you're eyes
The moment you realise
I'll soon be free
Free for you oo oo (Aaahh)

Oooh Ooh Ooh Ooh 
Ooh Ooh Oooh (Woah I tell ya)

You've got me going between heaven and hell
The ups and downs of you has got me so I can stand up and yell
You treat me wrong but I know you
Still there's no disputin' that you're out of sight

 



                                                          x x x x
  
e|------- ------- ------- -------|------- ------- ------- -------|
B|-------------------------------|-------------------------------|
G|-------------------------------|-----------------------------2-|
D|-------------------------------|-------------------------------|
A|-------------------------------|------------------------2-3-4--|
E|-------------------------------|-------------------------------|



  X

e|------- ------- ------- -------|------- ------- ------- -------|
B|-------------------------------|-------------------------------|
G|-----------------------------2-|-----------------------------2-|
D|-------------------------------|-------------------------------|
A|0---0---0---0---0---0---2-3-4--|0---0---0---0---0---0---2-3-4--|
E|-------------------------------|-------------------------------|





e|------- ------- ------- -------|------- ------- ------- -------|
B|-------------------------------|-------------------------------|
G|-----------------------------2-|-----------------------------2-|
D|-------------------------------|-------------------------------|
A|0---0---0---0---0---0---2-3-4--|0---0---0---0---0---0---2-3-4--|
E|-------------------------------|-------------------------------|




e|------- ------- ------- -------|------- ------- ------- -------|
B|-------------------------------|-------------------------------|
G|-------------------------------|-------------------------------|
D|-------------------------------|-------------------------------|
A|-------------------------------|-------------------------------|
E|3---3---3-------3---3---3---3--|3---3---3-------3---3---3---3--|
  A7                              G6
e|0------ ------- ------- -------|0------ ------- ------- -------|
B|2------------------------------|0------------------------------|
G|0------------------------------|0------------------------------|
D|2------------------------------|0------------------------------|
A|0------------------------------|2------------------------------|
E|3------------------------------|3------------------------------|
  Hell        is  knowing that your face has gone     red




e|------- ------- ------- -------|------- ------- ------- -------|
B|-------------------------------|-------------------------------|
G|-------------------------------|-------------------------------|
D|-------------------------------|-------------------------------|
A|-------------------------------|-------------------------------|
E|3---3---3-------3---3---3---3--|3---3---3-------3---3---3---3--|
  A7                              G6         
e|0------ ------- ------- -------|0------ ------- ------- -------|
B|2------------------------------|0------------------------------|
G|0------------------------------|0------------------------------|
D|2------------------------------|0------------------------------|
A|0------------------------------|2------------------------------|
E|3------------------------------|3------------------------------|
            Discovering someone else  in      your    bed 



e|------- ------- ------- -------|------- ------- ------- -------|
B|-------------------------------|-------------------------------|
G|-------------------------------|-------------------------------|
D|-------------------------------|-------------------------------|
A|-------------------------------|-------------------------------|
E|3-------3---3-------3---3---3--|3-------3---3-------3---3---3--|
  A7          G6                  A7          G6 
e|0------ ----0-- ------- -------|0------ ----0-- ------- -------|
B|2-----------0------------------|2-----------0------------------|
G|0-----------0------------------|0-----------0------------------|
D|2-----------0------------------|2-----------0------------------|
A|0-----------2------------------|0-----------2------------------|
E|3-----------3------------------|3-----------3------------------|
  Baby,                           baby,


  (.

e|------- ------- ------- -------|------- ------- ------- -------|
B|2------------------------------|-------------------------------|
G|2------------------------------|-------------------------------|
D|4------------------------------|-------------------------------|
A|4------------------------------|-------------------------------|
E|2------------------------------|-------------------------------|
  F#m
e|2------ ------- ------- -------|------- ------- ------- -------|
B|2------------------------------|-------------------------------|
G|2------------------------------|-------------------------------|
D|4------------------------------|-------------------------------|
A|4------------------------------|-------------------------------|
E|2------------------------------|-------------------------------|
  This        kind        of      love's    bringing down this 




e|------- ------- ------- ----5-7|8------ ------- ------- -------|
B|7------------------------------|-------------------------------|
G|-------------------------------|-------------------------------|
D|-------------------------------|-------------------------------|
A|-------------------------------|-------------------------------|
E|-------------------------------|-------------------------------|
  D                               Dsus4
e|2------ 2-----2 ----2-- --2----|3-----3 ----3-- --3---- 3------|
B|--3-------3-----3-----3-----3--|--3-----3-----3-----3-----3----|
G|-------------------------------|-------------------------------|
D|----0-------0-----0-----0-----0|----0-----0-----0-----0-----0--|
A|-------------------------------|-------------------------------|
E|-------------------------------|-------------------------------|
  man




e|------- ------- ------- -------|------- ------- ------- -------|
B|-------------------------------|-------------------------------|
G|-------------------------------|-----------------------------2-|
D|-------------------------------|-------------------------------|
A|0---0---0---0---0---0---0---0--|0---0---0---0---0---0---2-3-4--|
E|-------------------------------|-------------------------------|
  A                               D
e|------- --9---- 9-----9 ----9--10----10 ---10-- -10----10------|
B|-----------10----10----10----10|-10----10----10----10----10----|
G|--------9-----9-----9-----9----|---11----11----11----11----11--|
D|-------------------------------|-------------------------------|
A|-------------------------------|-------------------------------|
E|-------------------------------|-------------------------------|
  You've got me going     between heaven  and hell            The




e|------- ------- ------- -------|------- ------- ------- -------|
B|-------------------------------|-------------------------------|
G|-------------------------------|-----------------------------2-|
D|-------------------------------|-------------------------------|
A|0---0---0---0---0---0---0---0--|0---0---0---0---0---0---2-3-4--|
E|-------------------------------|-------------------------------|
  A                               D
e|--9---- 9-----9 ----9-- --9----|-10----10----10 ---10-- -10----|
B|---10----10----10----10----10--|---10----10----10----10----10--|
G|9-----9-----9-----9-----9------11----11----11----11----11----11|
D|-------------------------------|-------------------------------|
A|-------------------------------|-------------------------------|
E|-------------------------------|-------------------------------|
  ups and downs of you            stand up and yell
                    has got 
                       me so I can 


e|------- ------- ------- -------|------- ------- ------- -------|
B|-------------------------------|-------------------------------|
G|-------------------------------|-------------------------------|
D|7-----------6------------------|4-----------2------------------|
A|-------------------------------|------------------------0------|
E|5-----------4------------------|2-----------0------------------|
  A           Dbm                 D           A
e|5------ ----4-- ------- -------|2------ ----0-- ------- 0------|
B|5-----------5------------------|3-----------2-----------2------|
G|6-----------6------------------|2-----------2-----------2------|
D|7-----------6------------------|0-----------2-----------2------|
A|7-----------4------------------|------------0-----------0------|
E|5------------------------------|-------------------------------|
                    You      but I    know    you
                     did me wrong 



e|------- ------- ------- -------|------- ------- ------- -------|
B|-------------------------------|-------------------------------|
G|7-----------6------------------|-------------------------------|
D|----------------------------2--|2---2---2-------2---2---2------|
A|5-----------4---------------2--|2---2---2-------2---2---2------|
E|----------------------------0--|0---0---0-------0---0---0------|
  D           Dbm                 E
e|2---2-- ----4-- ----4-- 4---4--|0---0-- 0------ 0---0-- 0------|
B|3---3-------5-------5---5---5--|0---0---0-------0---0---0------|
G|2---2-------6-------6---6---6--|1---1---1-------1---1---1------|
D|0---0-------6-------6---6---6--|2---2---2-------2---2---2------|
A|------------4-------4---4---4--|2---2---2-------2---2---2------|
E|-------------------------------|0---0---0-------0---0---0------|
  Still there's          that you're          sight
         no disputin'             out of     


  G-5                             G
e|3-3-3-3 3---3-3 3-3-3-- 3---3--|3-3-3-3 3---3-3 3-3-3-- 3---3--|
B|2-2-2-2-2---2-2-2-2-2---2---2--|3-3-3-3-3---3-3-3-3-3---3---3--|
G|4-4-4-4-4---4-4-4-4-4---4---4--|4-4-4-4-4---4-4-4-4-4---4---4--|
D|-------------------------------|-------------------------------|
A|-------------------------------|-------------------------------|
E|-------------------------------|-------------------------------|
  A7                              G6
e|0------ ------- ------- -------|0------ ------- ------- -------|
B|2------------------------------|0------------------------------|
G|0------------------------------|0------------------------------|
D|2------------------------------|0------------------------------|
A|0------------------------------|2------------------------------|
E|3------------------------------|3------------------------------|
  Hell,       I'm drowning in the sea of      despair



  G-5                             G
e|3-3-3-3 3---3-3 3-3-3-- 3---3--|3-3-3-3 3---3-3 3-3-3-- 3---3--|
B|2-2-2-2-2---2-2-2-2-2---2---2--|3-3-3-3-3---3-3-3-3-3---3---3--|
G|4-4-4-4-4---4-4-4-4-4---4---4--|4-4-4-4-4---4-4-4-4-4---4---4--|
D|-------------------------------|-------------------------------|
A|-------------------------------|-------------------------------|
E|-------------------------------|-------------------------------|
  A7                              G6
e|0------ ------- ------- -------|0------ ------- ------- -------|
B|2------------------------------|0------------------------------|
G|0------------------------------|0------------------------------|
D|2------------------------------|0------------------------------|
A|0------------------------------|2------------------------------|
E|3------------------------------|3------------------------------|
            The world goes          not aware
                          by but I'm



e|------- ------- ------- -------|------- ------- ------- -------|
B|-------------------------------|-------------------------------|
G|-------------------------------|0-----------------------0-2-3-4|
D|------------------------0-2-3-4|-------------------------------|
A|-------------------------------|-------------------------------|
E|-------------------------------|-------------------------------|
  A7          G6                  A7          G6
e|0------ ----0-- ------- -------|0------ ----0-- ------- -------|
B|2-----------0------------------|2-----------0------------------|
G|0-----------0------------------|0-----------0------------------|
D|2-----------0------------------|2-----------0------------------|
A|0-----------2------------------|0-----------2------------------|
E|3-----------3------------------|3-----------3------------------|
  Baby,                           baby,


 (.
e|------- ------- ------- -------|------- ------- ------- -------|
B|2------------------------------|-------------------------------|
G|-------------------------------|-------------------------------|
D|-------------------------------|-------------------------------|
A|-------------------------------|-------------------------------|
E|-------------------------------|-------------------------------|
  F#m
e|2------ ------- ------- -------|------- ------- ------- -------|
B|2------------------------------|-------------------------------|
G|2------------------------------|-------------------------------|
D|4------------------------------|-------------------------------|
A|4------------------------------|-------------------------------|
E|2------------------------------|-------------------------------|
  This        kind        of      love's    bringing down this 




e|------- ------- ------- ----5-7|8------ ------- ------- -------|
B|7------------------------------|-------------------------------|
G|-------------------------------|-------------------------------|
D|-------------------------------|-------------------------------|
A|-------------------------------|-------------------------------|
E|-------------------------------|-------------------------------|
  D                               Dsus4
e|2------ 2-----2 ----2-- --2----|3-----3 ----3-- --3---- 3------|
B|--3-------3-----3-----3-----3--|--3-----3-----3-----3-----3----|
G|-------------------------------|-------------------------------|
D|----0-------0-----0-----0-----0|----0-----0-----0-----0-----0--|
A|-------------------------------|-------------------------------|
E|-------------------------------|-------------------------------|
  man




e|------- ------- ------- -------|------- ------- ------- -------|
B|-------------------------------|-------------------------------|
G|-------------------------------|-----------------------------2-|
D|-------------------------------|-------------------------------|
A|0---0---0---0---0---0---0---0--|0---0---0---0---0---0---2-3-4--|
E|-------------------------------|-------------------------------|
  A                               D
e|--9---- 9-----9 ----9-- --9----|-10----10----10 ---10-- -10----|
B|---10----10----10----10----10--|---10----10----10----10--------|
G|9-----9-----9-----9-----9------11----11----11----11----11------|
D|-------------------------------|-------------------------------|
A|-------------------------------|-------------------------------|
E|-------------------------------|-------------------------------|
  You've got me going     between heaven  and hell            The




e|------- ------- ------- -------|------- ------- ------- -------|
B|-------------------------------|-------------------------------|
G|-------------------------------|-----------------------------2-|
D|-------------------------------|-------------------------------|
A|0---0---0---0---0---0---0---0--|0---0---0---0---0---0---2-3-4--|
E|-------------------------------|-------------------------------|
  A                               D
e|--9---- 9-----9 ----9-- --9----|-10----10----10 ---10-- -10----|
B|---10----10----10----10----10--|---10----10----10----10----10--|
G|9-----9-----9-----9-----9------11----11----11----11----11----11|
D|-------------------------------|-------------------------------|
A|-------------------------------|-------------------------------|
E|-------------------------------|-------------------------------|
  ups and downs of you            stand up and yell
                    has got 
                       me so I can 


e|------- ------- ------- -------|------- ------- ------- -------|
B|-------------------------------|-------------------------------|
G|-------------------------------|-------------------------------|
D|7-----------6------------------|4-----------2------------------|
A|-------------------------------|------------------------0------|
E|5-----------4------------------|2-----------0------------------|
  A           Dbm                 D           A
e|5------ ----4-- ------- -------|2------ ----0-- ------- 0------|
B|5-----------5------------------|3-----------2-----------2------|
G|6-----------6------------------|2-----------2-----------2------|
D|7-----------6------------------|0-----------2-----------2------|
A|7-----------4------------------|------------0-----------0------|
E|5------------------------------|-------------------------------|
                    You      but I    know    you
                     did me wrong 



e|------- ------- ------- -------|------- ------- ------- -------|
B|-------------------------------|-------------------------------|
G|7-----------6------------------|-------------------------------|
D|7-----------6---------------2--|2---2---2---2---2---2---2---2--|
A|5-----------4---------------2--|2---2---2---2---2---2---2---2--|
E|----------------------------0--|0---0---0---0---0---0---0---0--|
  D           Dbm                 E
e|2------ ----4-- ------- -------|0---0-- 0---0-- 0---0-- 0---0--|
B|3-----------5------------------|0---0---0---0---0---0---0---0--|
G|2-----------6------------------|1---1---1---1---1---1---1---1--|
D|0-----------6------------------|2---2---2---2---2---2---2---2--|
A|------------4------------------|2---2---2---2---2---2---2---2--|
E|-------------------------------|0---0---0---0---0---0---0---0--|
  Still there's          that you're          sight
         no disputin'             out of     

                                 (.

e|------- ------- ------- -------|------- ------- ------- -------|
B|-------------------------------|-------------------------------|
G|-------------------------------|-------------------------------|
D|2---2---2---2---2---2---2---2--|2------------------------------|
A|2---2---2---2---2---2---2---2--|2------------------------------|
E|0---0---0---0---0---0---0---0--|0------------------------------|

e|0---0-- 0---0-- 0---0-- 0---0--|------- ------- ------- -------|
B|0---0---0---0---0---0---0---0--|-------------------------------|
G|1---1---1---1---1---1---1---1--|-------------------------------|
D|2---2---2---2---2---2---2---2--|-------------------------------|
A|2---2---2---2---2---2---2---2--|-------------------------------|
E|0---0---0---0---0---0---0---0--|-------------------------------|




  Ab
e|------- ------- -------11--11--11--11--11--11--11--11--11--11--|
B13--13--13--13--13--13--13--13--13--13--13--13--13--13--13--13--|
G13--13--13--13--13--13--13--13--13--13--13--13--13--13--13--13--|
D|-------------------------------|-------------------------------|
A|-------------------------------|-------------------------------|
E|-------------------------------|-------------------------------|
  



                                  Abmaj7
e11--11--11--11--11--11--11--11--11--11--11--11--11--11--11--11--|
B13--13--13--13--13--13--13--13--13--13--13--13--13--13--13--13--|
G13--13--13--13--13--13--13--13--12--12--12--12--12--12--12--12--|
D|-------------------------------|-------------------------------|
A|-------------------------------|-------------------------------|
E|-------------------------------|-------------------------------|
  Heaven                      is  in  your    eyes
              


  Fm                              Ab+5
e|8---8-- 8---8-- 8---8-- 8---8--|8---8-- 8---8-- 8---8-- 8---8--|
B|9---9---9---9---9---9---9---9--|9---9---9---9---9---9---9---9--|
G10--10--10--10--10--10--10--10--|9---9---9---9---9---9---9---9--|
D|-------------------------------|-------------------------------|
A|-------------------------------|-------------------------------|
E|-------------------------------|-------------------------------|
              The moment      you realise
             


  Ab7
e|8---8-- 8---8-- 8---8-- 8---8--|8---8-- 8---8-- 8---8-- 8---8--|
B|9---9---9---9---9---9---9---9--|9---9---9---9---9---9---9---9--|
G11--11--11--11--11--11--11--11--11--11--11--11--11--11--11--11--|
D|-------------------------------|-------------------------------|
A|-------------------------------|-------------------------------|
E|-------------------------------|-------------------------------|
             I'll soon be free                    Free    for 
  

                                                          
  F
e|8---8-- 8---8-- 8---8-- 8---8--|8---8-- 8---8-- 8---8-- 8---8--|
B10--10--10--10--10--10--10--10--10--10--10--10--10--10--10--10--|
G10--10--10--10--10--10--10--10--10--10--10--10--10--10--10--10--|
D|-------------------------------|-------------------------------|
A|-------------------------------|-------------------------------|
E|-------------------------------|-------------------------------|
  you                     ooooooh ooooooooooooooooooh 
 

                                                          x
  A
e|9---9-- 9---9-- 9---9-- 9---9--|9---9-- 9---9-- 9---9-- 9---9--|
B10--10--10--10--10--10--10--10--10--10--10--10--10--10--10--10--|
G|9---9---9---9---9---9---9---9--|9---9---9---9---9---9---9---9--|
D|-------------------------------|-------------------------------|
A|-------------------------------|-------------------------------|
E|-------------------------------|-------------------------------|
 (Aaaaaaaaaaaaaaaaaaaaaaaaaaaaaaaaaaaaaaaaaaaaaaaahh)




e|------- ------- ------- -------|------- ------- ------- -------|
B|-------------------------------|-------------------------------|
G|-------------------------------|-----------------------------2-|
D|-------------------------------|-------------------------------|
A|-------------------------------|------------------------2-3-4--|
E|-------------------------------|-------------------------------|
  A                               D
e|0------ ------- ------- -------|2------ ------- ------- -------|
B|2------------------------------|3------------------------------|
G|2------------------------------|2------------------------------|
D|2------------------------------|0------------------------------|
A|0------------------------------|0------------------------------|
E|-------------------------------|-------------------------------|

e|--9---- 9-----9 ----9-- --9----|-10----10----10 ---10-- -10----|
B|---10----10----10----10----10--|---10----10----10----10----10--|
G|9-----9-----9-----9-----9------11----11----11----11----11----11|
D|-------------------------------|-------------------------------|
A|-------------------------------|-------------------------------|
E|-------------------------------|-------------------------------|





e|------- ------- ------- -------|------- ------- ------- -------|
B|-------------------------------|-------------------------------|
G|-------------------------------|-----------------------------2-|
D|-------------------------------|-------------------------------|
A|0---0---0---0---0---0---0---0--|0---0---0---0---0---0---2-3-4--|
E|-------------------------------|-------------------------------|
  A                               D
e|0------ ------- ------- -------|2------ ------- ------- -------|
B|2------------------------------|3------------------------------|
G|2------------------------------|2------------------------------|
D|2------------------------------|0------------------------------|
A|0------------------------------|0------------------------------|
E|-------------------------------|-------------------------------|

e|--9---- 9-----9 ----9-- --9----|-10----10----10 ---10-- -10----|
B|---10----10----10----10----10--|---10----10----10----10----10--|
G|9-----9-----9-----9-----9------11----11----11----11----11----11|
D|-------------------------------|-------------------------------|
A|-------------------------------|-------------------------------|
E|-------------------------------|-------------------------------|





e|------- ------- ------- -------|------- ------- ------- -------|
B|-------------------------------|-------------------------------|
G|-------------------------------|-------------------------------|
D|7-----------6------------------|4-----------2------------------|
A|-------------------------------|------------------------0------|
E|5-----------4------------------|2-----------0------------------|
  A           Dbm                 D           A
e|5------ ----4-- ------- -------|2------ ----0-- ------- 0------|
B|5-----------5------------------|3-----------2-----------2------|
G|6-----------6------------------|2-----------2-----------2------|
D|7-----------6------------------|0-----------2-----------2------|
A|7-----------4------------------|------------0-----------0------|
E|5------------------------------|-------------------------------|
 (Ooooooooooh Ooooooooooh Ooooooh Ooooooooooh Ooooooooooh Ooooooh 
                  



e|------- ------- ------- -------|------- ------- ------- -------|
B|-------------------------------|-------------------------------|
G|7-----------6------------------|-------------------------------|
D|7-----------6---------------2--|2---2---2---2---2---2---2---2--|
A|5-----------4---------------2--|2---2---2---2---2---2---2---2--|
E|----------------------------0--|0---0---0---0---0---0---0---0--|
  D           Dbm                 E5
e|2------ ----4-- ------- -------|------- ------- ------- -------|
B|3-----------5------------------|-------------------------------|
G|2-----------6------------------|-------------------------------|
D|0-----------6------------------|------------------------7---7--|
A|------------4------------------|7---7---7---7---7---7---7---7--|
E|-------------------------------|0---0---0---0---0---0---0---0--|
  Ooooooooooh Ooooooooooh Ooooooh Ooooooooooooooooooooooooooooooo




e|------- ------- ------- -------|
B|-------------------------------|
G|-------------------------------|
D|2---2---2---2---2---2---2---2--|
A|2---2---2---2---2---2---2---2--|
E|0---0---0---0---0---0---0---0--| 

e|------- ------- ------- -------|
B|-------------------------------|
G|-------------------------------|
D|7---7---7---7---7---7---7---7--|
A|7---7---7---7---7---7---7---7--|
E|0---0---0---0---0---0---0---0--|
          Woah        I   tell ya          
  oooooooooooooh)



e|------- ------- ------- -------|------- ------- ------- -------|
B|-------------------------------|-------------------------------|
G|-------------------------------|------------------------------2|
D|-------------------------------|-------------------------------|
A|0---0---0---0---0---0---0---0--|0---0---0---0---0---0---2-3-4--|
E|-------------------------------|-------------------------------|
  A                               D
e|5------ ------- ------- -------|5------ ------- ------- -------|
B|5------------------------------|7------------------------------|
G|6------------------------------|7------------------------------|
D|7---7---7---7---7---7---7---7--|7---7---7---7---7---7---7---7--|
A|0------------------------------|0------------------------------|
E|-------------------------------|-------------------------------|

e|--9---- 9-----9 ----9-- --9----|-10----10----10 ---10-- -10----|
B|---10----10----10----10----10--|---10----10----10----10----10--|
G|9-----9-----9-----9-----9------11----11----11----11----11----11|
D|-------------------------------|-------------------------------|
A|-------------------------------|-------------------------------|
E|-------------------------------|-------------------------------|
  You've got me going     between heaven  and hell            The




e|------- ------- ------- -------|------- ------- ------- -------|
B|-------------------------------|-------------------------------|
G|-------------------------------|------------------------------2|
D|-------------------------------|-------------------------------|
A|0---0---0---0---0---0---0---0--|0---0---0---0---0---0---2-3-4--|
E|-------------------------------|-------------------------------|
  A                               D
e|5------ ------- ------- -------|5------ ------- ------- -------|
B|5------------------------------|7------------------------------|
G|6------------------------------|7------------------------------|
D|7---7---7---7---7---7---7---7--|7---7---7---7---7---7---7---7--|
A|0------------------------------|0------------------------------|
E|-------------------------------|-------------------------------|

e|--9---- 9-----9 ----9-- --9----|-10----10----10 ---10-- -10----|
B|---10----10----10----10----10--|---10----10----10----10----10--|
G|9-----9-----9-----9-----9------11----11----11----11----11----11|
D|-------------------------------|-------------------------------|
A|-------------------------------|-------------------------------|
E|-------------------------------|-------------------------------|
  ups and downs of you            stand up and yell
                    has got 
                       me so I can 


e|------- ------- ------- -------|------- ------- ------- -------|
B|-------------------------------|-------------------------------|
G|-------------------------------|-------------------------------|
D|7-----------6------------------|4-----------2------------------|
A|-------------------------------|------------------------0------|
E|5-----------4------------------|2-----------0------------------|
  A           Dbm                 D           A
e|5------ ----4-- ----4-- 4---4--|2------ 2---0-- ----0-- 0---0--|
B|5-----------5-------5---5---5--|3-------3---2-------2---2---2--|
G|6-----------6-------6---6---6--|2-------2---2-------2---2---2--|
D|7-----------6-------6---6---6--|0-------0---2-------2---2---2--|
A|7-----------4-------4---4---4--|------------0-------0---0---0--|
E|5------------------------------|-------------------------------|
                    You      but I    know    you
                     did me wrong 



e|------- ------- ------- -------|------- ------- ------- -------|
B|-------------------------------|-------------------------------|
G|7-----------6------------------|-------------------------------|
D|7-----------6---------------2--|2---2---2---2---2---2---2---2--|
A|5-----------4---------------2--|2---2---2---2---2---2---2---2--|
E|----------------------------0--|0---0---0---0---0---0---0---0--|
  D           Dbm                 E
e|5---5-- ----4-- ----4-- 4------|0---0-- 0---0-- 0---0-- 0---0--|
B|7---7-------5-------5---5------|0---0---0---0---0---0---0---0--|
G|7---7-------6-------6---6------|1---1---1---1---1---1---1---1--|
D|7---7-------6-------6---6------|2---2---2---2---2---2---2---2--|
A|5---5-------4-------4---4------|2---2---2---2---2---2---2---2--|
E|-------------------------------|0---0---0---0---0---0---0---0--|
  Still there's          that you're          sight
         no disputin'             out of     



e|------- ------- ------- -------|
B|-------------------------------|
G|------------------------------2|
D|-------------------------------|
A|------------------------2-3-4--|
E|-------------------------------|

e|0---0-- 0---0-- 0---0-- 0---0--|
B|0---0---0---0---0---0---0---0--|
G|1---1---1---1---1---1---1---1--|
D|2---2---2---2---2---2---2---2--|
A|2---2---2---2---2---2---2---2--|
E|0---0---0---0---0---0---0---0--|




e|------- ------- ------- -------|------- ------- ------- -------|
B|-------------------------------|-------------------------------|
G|------------------------------2|------------------------------2|
D|-------------------------------|-------------------------------|
A|0---0---0---0---0---0---2-3-4--|0---0---0---0---0---0---2-3-4--|
E|-------------------------------|-------------------------------|
                                  A
e|------- ------- ------- -------|----0-- 0---0-- 0---0-- 0---0--|
B|-------------------------------|----2---2---2---2---2---2---2--|
G|-------------------------------|----2---2---2---2---2---2---2--|
D|-------------------------------|----2---2---2---2---2---2---2--|
A|-------------------------------|----0---0---0---0---0---0---0--|
E|-------------------------------|-------------------------------|



                                 (.

e|------- ------- ------- -------|------- ------- ------- -------|
B|-------------------------------|-------------------------------|
G|------------------------------2|2------------------------------|
D|-------------------------------|2------------------------------|
A|0---0---0---0---0---0---2-3-4--|0------------------------------|
E|-------------------------------|-------------------------------|

e|0------ ------- ------- -------|0------ ------- ------- -------|
B|2------------------------------|2------------------------------|
G|2------------------------------|2------------------------------|
D|2------------------------------|2------------------------------|
A|0------------------------------|0------------------------------|
E|-------------------------------|-------------------------------|







        B  Bend
        R  Release
        /  Slide up
        \  Slide down
        H  Hammer-on
        P  Pull-off
        ~  Vibrato
        +  Harmonic
        x  Mute note
        .  Play note like a dot in standard notation
        ^  Ties two notes together
        (. Pause
            
Hard to play? Try these video lessons and learn fast. | Correct




comments powered by Disqus
↑ Back to top | Tablatures and chords are parodies/interpretations of the original songs. You may use it for private study, scholarship, research or language learning purposes only