>
 >
Do You Have A Soul

Do You Have A Soul Guitar Tabs

Easybeats - Do You Have A Soul chords, tabs, tablatures, lyrics

Guitar lessons | Add/correct | Request | Top 50 tabs Artists:  A B C D E F G H I J K L M N O P Q R S T U V W X Y Z 0-9

Do You Have A Soul Guitar Tabs – Easybeats

CD, Sheet music, Poster

Do you like Do You Have A Soul? Share with your friends now
Tabs
With all my friends we hang around
The back streets here in my own town
Because I got no money and I look real poor
It doesn't mean to say that you can close your door

Ay ay ay ay ay ay ay ay ay
Anybody here please tell me what to do
Ay ay ay ay ay ay ay ay ay
I see the world and my mind don't like the view             
Ooooooooooooh
                
Do you have a heart? Do you have a soul?  
Do you have a love that never grows old? 

Do you have a heart? Do you have a soul?  
Do you have a love that never grows old? 

Doodododo  doodododo  doodododo  doodododo
Doodododo  doodododo  doodododo  doodododo   
 
You look real good in your white Rolls Royce
And you have a million pounds worth of playing toys
You're usin' all those people like you use the phone  
The figures of your brother like a thing you own      

Ay ay ay ay ay ay ay ay ay
Anybody here please tell me what to do
Ay ay ay ay ay ay ay ay ay                                      
I see the world but my mind don't like the view
Ooooooooooooh
                
Do you have a heart? Do you have a soul?  
Do you have a love that never grows old? 

Do you have a heart? Do you have a soul?  
Do you have a love that never grows old?  

Doodododo  doodododo  doodododo  doodododo
Doodododo  doodododo  doodododo  doodododo

Do you have a heart? Do you have a soul?  
Do you have a love that never grows old? 

Do you have a heart? Do you have a soul?  
Do you have a love that never grows old?  


                                                              

 (F+5/sus4)                                  
  Bbmmaj7                  
e|1------ ------- ------- -------|----1-- ------- ------- -------|
B|2------------------------------|----2--------------------------|
G|2------------------------------|----2--------------------------|
D|3------------------------------|----3--------------------------|
A|1------------------------------|----1--------------------------|
E|-------------------------------|-------------------------------|
                  (Ape's gibber)
e|5------ ------- 5------ -------|5------ ------- 5------ -------|
B|-------------------------------|-------------------------------|
G|--------2---------------2------|--------2---------------2------|
D|-------------------------------|-------------------------------|
A|-------------------------------|-------------------------------|
E|-------------------------------|-------------------------------|




e|------- ------- 1------ -------|------- ----1-- ------- -------|
B|----------------2--------------|------------2------------------|
G|----------------2--------------|------------2------------------|
D|----------------3--------------|------------3------------------|
A|----------------1--------------|------------1------------------|
E|-------------------------------|-------------------------------|

e|5------ ------- 5------ -------|5------ ------- 5------ -------|
B|-------------------------------|-------------------------------|
G|--------2---------------2------|--------2---------------2------|
D|-------------------------------|-------------------------------|
A|-------------------------------|-------------------------------|
E|-------------------------------|-------------------------------|




e|5------ ------- 5------ -------|5------ -------|
B|-------------------------------|---------------|
G|--------2---------------2------|--------2------|
D|-------------------------------|---------------|
A|-------------------------------|---------------|
E|-------------------------------|---------------|
                                              With 
e|------- ------- ------- -------|------- -------|
B|-------------------------------|---------------|
G|-------------------------------|---------------|
D|-------------------------------|---------------|
A|-------------------------------|---------------|
E|-------------------------------|---------------|



  
e|5------ ------- ------- -------|------- ------- ------- -------|
B|-------------------------------|-------------------------------|
G|--------2-------5-------4------|2-------4-------5-------4------|
D|-------------------------------|-------------------------------|
A|-------------------------------|-------------------------------|
E|-------------------------------|-------------------------------|
  all     my      friends we  hang    around                  the
e|------- ------- ------- -------|------- ------- ------- -------|
B|-------------------------------|-------------------------------|
G|-------------------------------|-------------------------------|
D|2---2---2---2---2---2---2---2--|5---5---5---5---5---5---5---5--|
A|-------------------------------|-------------------------------|
E|-------------------------------|-------------------------------|
  A5                              A7
e|------- ------- ------- -------|------- ------- ------- -------|
B|-------------------------------|-------------------------------|
G|-------------------------------|-------------------------------|
D|-------------------------------|-------------------------------|
A|-------------------------------|-------------------------------|
E|5---5---5---5---5---5---5---5--|5---5---5---5---5---5---5---5--|



  
e|------- ------- ------- -------|------- ------- ------- -------|
B|-------------------------------|-------------------------------|
G|2-------2-------5-------4------|2-------4-------5-------4------|
D|-------------------------------|-------------------------------|
A|-------------------------------|-------------------------------|
E|-------------------------------|-------------------------------|
  back    streets here    in  my      home    town             Be..
e|------- ------- ------- -------|------- ------- ------- -------|
B|-------------------------------|-------------------------------|
G|-------------------------------|-------------------------------|
D|4---4---4---4---4---4---4---4--|3---3---3---3---3---3---3---3--|
A|-------------------------------|-------------------------------|
E|-------------------------------|-------------------------------|
  A6                              A+5
e|------- ------- ------- -------|------- ------- ------- -------|
B|-------------------------------|-------------------------------|
G|-------------------------------|-------------------------------|
D|-------------------------------|-------------------------------|
A|-------------------------------|-------------------------------|
E|5---5---5---5---5---5---5---5--|5---5---5---5---5---5---5---0--|


          x               x               x               x

e|------- ------- ------- -------|------- ------- ------- -------|
B|-------------------------------|-------------------------------|
G|2-------2-------5-------4------|2-------4-------5-------4------|
D|-------------------------------|-------------------------------|
A|-------------------------------|-------------------------------|
E|-------------------------------|-------------------------------|
 .cause I got no  money   and I   look real   poor            it
e|------- ------- ------- -------|------- ------- ------- -------|
B|-------------------------------|-------------------------------|
G|-------------------------------|-------------------------------|
D|4---4---4---4---4---4---4---4--|5---5---5---5---5---5---5---5--|
A|-------------------------------|-------------------------------|
E|-------------------------------|-------------------------------|
  A6                              A7
e|------- ------- ------- -------|------- ------- ------- -------|
B|-------------------------------|-------------------------------|
G|-------------------------------|-------------------------------|
D|-------------------------------|-------------------------------|
A|-------------------------------|-------------------------------|
E|5---5---5---5---5---5---5---5--|5---5---5---5---5---5---5---0--|


          x               x               x               x   X

e|------- ------- ------- -------|------- ------- ------- -------|
B|-------------------------------|-------------------------------|
G|2-------2-------5-------4------|2-------4-------5-------4------|
D|-------------------------------|-------------------------------|
A|-------------------------------|-------------------------------|
E|-------------------------------|-------------------------------|
  doesn't mean to say that you can close  your door
e|------- ------- ------- -------|------- ------- ------- -------|
B|-------------------------------|-------------------------------|
G|-------------------------------|-------------------------------|
D|4---4---4---4---4---4---4---4--|3---3---3---3---3---3---3------|
A|-------------------------------|-------------------------------|
E|-------------------------------|-------------------------------|
  A6                              A+5
e|------- ------- ------- -------|------- ------- ------- -------|
B|-------------------------------|-------------------------------|
G|-------------------------------|-------------------------------|
D|-------------------------------|-------------------------------|
A|-------------------------------|-------------------------------|
E|5---5---5---5---5---5---5---5--|5---5---5---5---5---5---5---0--|


  X       x               x   X   X       x               x   X

e|------- ------- ------- -------|------- ------- ------- -------|
B|-------------------------------|-------------------------------|
G|5-------4-------5-------4------|5-------4-------5-------4------|
D|-------------------------------|-------------------------------|
A|-------------------------------|-------------------------------|
E|-------------------------------|-------------------------------|

e|------- ------- ------- -------|------- ------- ------- -------|
B|-------------------------------|-------------------------------|
G|-------------------------------|-------------------------------|
D|3---3---3---3---3---3---3------|3---3---3---3---3---3---3------|
A|-------------------------------|-------------------------------|
E|-------------------------------|-------------------------------|

e|------- ------- ------- -------|------- ------- ------- -------|
B|-------------------------------|-------------------------------|
G|-------------------------------|-------------------------------|
D|-------------------------------|-------------------------------|
A|-------------------------------|-------------------------------|
E|5---5---5---5---5---5---5---0--|5---5---5---5---5---5---5---0--|


  X

e|------- ------- ------- -------|------- ------- ------- -------|
B|-------------------------------|-------------------------------|
G|5-------4-------5-------4------|5-------4-------5-------4------|
D|-------------------------------|-------------------------------|
A|-------------------------------|-------------------------------|
E|-------------------------------|-------------------------------|

e|------- ------- ------- -------|------- ------- ------- -------|
B|-------------------------------|-------------------------------|
G|-------------------------------|-------------------------------|
D|3---3--------------------------|-------------------------------|
A|-------------------------------|-------------------------------|
E|-------------------------------|-------------------------------|

e|------- ------- ------- -------|------- ------- ------- -------|
B|-------------------------------|-------------------------------|
G|-------------------------------|-------------------------------|
D|-------------------------------|-------------------------------|
A|-------------------------------|-------------------------------|
E|5---5---5---5---5---5---5---5--|5---5---5---5---5---5---5---5--|




e|------- ------- ------- -------|------- ------- ------- -------|
B|-------------------------------|-------------------------------|
G|-------------------------------|-------------------------------|
D|-------------------------------|-------------------------------|
A|----8-------6-------5-------6--|----8-------6-------5-------6-/|
E|6-------6-------6-------6------|6-------6-------6-----------4-/|
  Ay  ay      ay      ay      ay      ay      ay      ay      ay     
e|6---6-- 6------ 6---6-- 6---6--|6---6-- 6---6-- ----6-- 6------|
B|6---6---6-------6---6---6---6--|6---6---6---6-------6---6------|
G|7---7---7-------7---7---7---7--|7---7---7---7-------7---7------|
D|8---8---8-------8---8---8---8--|8---8---8---8-------8---8------|
A|8---8---8-------8---8---8---8--|8---8---8---8-------8---8------|
E|6---6---6-------6---6---6---6--|6---6---6---6-------6---6------|
  Bb



e|------- ------- ------- -------|------- ------- ------- -------|
B|-------------------------------|-------------------------------|
G|-------------------------------|-------------------------------|
D|-------------------------------|-------------------------------|
A|8---------------------------6-/|8------------------------------|
E|6-------6-------6-------6---4-/|6-------6-------6-------6------|
  Anybody     here    please  tell    me             what to  do
e|6------ 6---6-- 6---6-- 6------|6------ 6---6-- ----6-- 6------|
B|6-------6---6---6---6---6------|6-------6---6-------6---6------|
G|7-------7---7---7---7---7------|7-------7---7-------7---7------|
D|8-------8---8---8---8---8------|8-------8---8-------8---8------|
A|8-------8---8---8---8---8------|8-------8---8-------8---8------|
E|6-------6---6---6---6---6------|6-------6---6-------6---6------|

e|------- ------- ------- -------|------- ------- ------- -------|
B|-------------------------------|-------------------------------|
G|7-------7-----------7-------8--|----7--------------------------|
D|8-------8-------8--------------|-------------------------------|
A|-------------------------------|-------------------------------|
E|-------------------------------|-------------------------------|




e|------- ------- ------- -------|------- ------- ------- -------|
B|-------------------------------|-------------------------------|
G|-------------------------------|-------------------------------|
D|-------------------------------|-------------------------------|
A|----10------8-------7-------8--|----10------8-------7-------8-/|
E|8-------8-------8-------8------|8-------8-------8-----------6-/|
  Ay  ay      ay      ay      ay      ay      ay      ay      ay 
e|8------ 8------ 8---8-- 8---8--|8---8-- 8---8-- ----8-- 8------|
B|8-------8-------8---8---8---8--|8---8---8---8-------8---8------|
G|9-------9-------9---9---9---9--|9---9---9---9-------9---9------|
D10------10------10--10--10--10--10--10--10--10------10--10------|
A10------10------10--10--10--10--10--10--10--10------10--10------|
E|8-------8-------8---8---8---8--|8---8---8---8-------8---8------|
  C



e|------- ------- ------- -------|------- ------- ------- -------|
B|-------------------------------|-------------------------------|
G|-------------------------------|-------------------------------|
D|-------------------------------|-------------------------------|
A10---------------------------8--|10-----------------------------|
E|8-------8-------8-------8---6-/|8---8---8-------8--------------|
  I       see the world and my mind   don't          like the view
e|8------ 8------ 8------ 8------|8------ 8---8-- ----8-- 8------|
B|8-------8-------8-------8------|8-------8---8-------8---8------|
G|9-------9-------9-------9------|9-------9---9-------9---9------|
D10------10------10------10------10------10--10------10--10------|
A10------10------10------10------10------10--10------10--10------|
E|8-------8-------8-------8------|8-------8---8-------8---8------|

e|------- ------- ------- -------|------- ------- ------- -------|
B|-------------------------------|-------------------------------|
G|9-------9-----------9-------10-|----9-----------9--------------|
D10------10------10--------------|---------------10--------------|
A|-------------------------------|-------------------------------|
E|-------------------------------|-------------------------------|




e|3------ 3---2-2 2------ 2------|
B|3-------3---3-3-3-------3------|
G|2-------2---2-2-2-------2------|
D|0-------0---0-0-0-------0------|
A|-------------------------------|
E|-------------------------------|
  D
e|5------ ----5-5 5------ 5------|
B|7-----------7-7-7-------7------|
G|7-----------7-7-7-------7------|
D|7-----------7-7-7-------7------|
A|5-----------5-5-5-------5------|
E|-------------------------------|



                               
e|3------ ------- ------- -------|------- ------- ------- -------|
B|3------------------------------|-------------------------------|
G|4------------------------------|-------------------------------|
D|5------------------------------|-------------------------------|
A|5------------------------------|-------------------------------|
E|3------------------------------|-------------------------------|
  Ooooooooooooooooooooooooooooooooooooooooooooooooooooooooooooooo
e|3---3-- 3---3-- 3---3-- 3---3--|3---3-- 3---3-- 3---3-- 3---3--|
B|3---3---3---3---3---3---3---3--|3---3---3---3---3---3---3---3--|
G|4---4---4---4---4---4---4---4--|5---5---5---5---5---5---5---5--|
D|5---5---5---5---5---5---5---5--|5---5---5---5---5---5---5---5--|
A|-------------------------------|-------------------------------|
E|-------------------------------|-------------------------------|
  G                               Gsus4

  x   x   x   x   x   x   x   x   x   x   x   x   x   x   x

e|3------ ------- ------- -------|------- ------- ------- -------|
B|3------------------------------|-------------------------------|
G|4------------------------------|-------------------------------|
D|5------------------------------|-------------------------------|
A|5------------------------------|-------------------------------|
E|3------------------------------|-------------------------------|
  ooooaaaaaaaaaaaaaaaaaaaaaaaaaaaaaaaaaaaaaaaaaaaaaaaaaahhhhh Do
e|3---3-- 3---3-- 3---3-- 3---3--|3---3-- 3---3-- 3---3-- 3---3--|
B|3---3---3---3---3---3---3---3--|6---6---6---6---6---6---6---6--|
G|4---4---4---4---4---4---4---4--|4---4---4---4---4---4---4---4--|
D|5---5---5---5---5---5---5---5--|5---5---5---5---5---5---5---5--|
A|-------------------------------|-------------------------------|
E|-------------------------------|-------------------------------|
  G                               G7


  
e|3------ ------- ------- -------|3------ ------- ------- -------|
B|1------------------------------|3------------------------------|
G|0------------------------------|0------------------------------|
D|2------------------------------|0------------------------------|
A|3------------------------------|2------------------------------|
E|-------------------------------|-------------------------------|
   you have a heart?          Do  you have a soul?            Do
e|3------ 3------ 3------ -------|3------ 3------ 3-----3 3------|
B|5-------5-------5--------------|6-------6-------6-----6-6------|
G|5-------5-------5--------------|4-------4-------4-----4-4------|
D|5-------5-------5--------------|3-------3-------3-----3-3------|
A|3-------3-------3--------------|5-------5-------5-----5-5------|
E|-------------------------------|3-------3-------3-----3-3------|
  C                               G7



e|3------ ------- ------- -------|1------ ------- ------- -------|
B|3------------------------------|1------------------------------|
G|3------------------------------|2------------------------------|
D|3------------------------------|3------------------------------|
A|1------------------------------|0------------------------------|
E|-------------------------------|-------------------------------|
  you have a love         that    never   grows   old?        Do
e|1------ 1------ 1------ 1------|1------ 1------ 1------ 1------|
B|3-------3-------3-------3------|1-------1-------1-------1------|
G|3-------3-------3-------3------|2-------2-------2-------2------|
D|3-------3-------3-------3------|3-------3-------3-------3------|
A|1-------1-------1-------1------|3-------3-------3-------3------|
E|-------------------------------|1-------1-------1-------1------|
  Bb                              F


        
e|8------ 8------ 8------ 8------|7------ 7------ 7------ 7------|
B|8-------8-------8-------8------|8-------8-------8-------8------|
G|9-------9-------9-------9------|7-------7-------7-------7------|
D10------10------10------10------|9-------9-------9-------9------|
A10------10------10------10------10------10------10------10------|
E|8-------8-------8-------8------|7-------7-------7-------7------|
  you have a heart?           Do  you have a soul?            Do
e|3------ 3---3-- 3------ 3------|3---3-- 3---3-- ------- 3------|
B|5-------5---5---5-------5------|6---6---6---6-----------6------|
G|5-------5---5---5-------5------|4---4---4---4-----------4------|
D|5-------5---5---5-------5------|3---3---3---3-----------3------|
A|3-------3---3---3-------3------|5---5---5---5-----------5------|
E|-------------------------------|3---3---3---3-----------3------|
  C                               G

                                  X

e|6------ 6------ 6------ 6------|3------ ------- ------- -------|
B|6-------6-------6-------6------|3------------------------------|
G|7-------7-------7-------7------|4------------------------------|
D|8-------8-------8-------8------|5------------------------------|
A|8-------8-------8-------8------|5------------------------------|
E|6-------6-------6-------6------|3------------------------------|
  you have a love         that    never   grows   old?
e|1---1-- 1---1-- ------- 1------|3------ ------- ------- -------|
B|3---3---3---3-----------3------|3------------------------------|
G|3---3---3---3-----------3------|4------------------------------|
D|3---3---3---3-----------3------|5------------------------------|
A|1---1---1---1-----------1------|5------------------------------|
E|-------------------------------|3------------------------------|
  Bb                              G

                                                      x   X
     
e|------- ------- ------- -------|------- ------- ------- -------|
B|-------------------------------|-------------------------------|
G|-------------------------------|-------------------------------|
D|-------------------------------|-------------------------------|
A|-----5------3-------2-------3--|----5-------3-------2----------|
E|3-------3-------3-------3------|3-------3-------3-------3------|
  Doo do  do  do  doo do  do  do  doo do  do  do  doo do  do  do 
e|------- ------- ------- -------|------- ------- ------- -------|
B|-------------------------------|-------------------------------|
G|-------------------------------|-------------------------------|
D|----5-------5-------5-------5--|----5-------5-------5-------5--|
A|-------------------------------|-------------------------------|
E|3-------3-------3-------3------|3-------3-------3-------3------|




e|------- ------- ------- -------|------- ------- ------- -------|
B|-------------------------------|-------------------------------|
G|-------------------------------|-------------------------------|
D|----9-------7-------6-------7--|----9-------7-------6----------|
A|7-------7-------7-------7------|7-------7-------7-------7------|
E|-------------------------------|-------------------------------|
  Doo do  do  do  doo do  do  do  doo do  do  do  doo do  do  do 
e|------- ------- ------- -------|------- ------- ------- -------|
B|-------------------------------|-------------------------------|
G|-------------------------------|-------------------------------|
D|----2-------2-------2-------2--|----2-------2-------2-------2--|
A|-------------------------------|-------------------------------|
E|0-------0-------0-------0------|0-------0-------0-------0------|
  E



e|------- ------- ------- -------|------- ------- ------- -------|
B|-------------------------------|-------------------------------|
G|-------------------------------|-------------------------------|
D|----9-------7-------6-------7--|----9-------7-------6----------|
A|7-------7-------7-------7------|7-------7-------7-------7------|
E|-------------------------------|-------------------------------|
                                                              You
e|------- ------- ------- -------|------- ------- ------- -------|
B|-------------------------------|-------------------------------|
G|-------------------------------|-------------------------------|
D|----2-------2-------2-------2--|----2-------2-------2----------|
A|-------------------------------|-------------------------------|
E|0-------0-------0-------0------|0-------0-------0-------0------|




e|------- ------- ------- -------|------- ------- ------- -------|    
B|-------------------------------|-------------------------------|
G|2-------4-------5-------4------|2-------4-------5-------4------|
D|-------------------------------|-------------------------------|
A|-------------------------------|-------------------------------|
E|-------------------------------|-------------------------------|   
  look real   good        in your white Rolls Royce       and you
e|------- ------- ------- -------|------- ------- ------- -------|
B|-------------------------------|-------------------------------|
G|-------------------------------|-------------------------------|
D|2---2---2---2---2---2---2---2--|5---5---5---5---5---5---5---5--|
A|-------------------------------|-------------------------------|
E|-------------------------------|-------------------------------|
  A5                              A7
e|------- ------- ------- -------|------- ------- ------- -------|
B|-------------------------------|-------------------------------|
G|-------------------------------|-------------------------------|
D|-------------------------------|-------------------------------|
A|-------------------------------|-------------------------------|
E|5------------------------------|-------------------------------|




e|5------ ------- ------- -------|------- ------- ------- -------|
B|-------------------------------|-------------------------------|
G|--------4-------5-------4------|2-------4-------5-------4------|
D|-------------------------------|-------------------------------|
A|-------------------------------|-------------------------------|
E|-------------------------------|-------------------------------|
  have a  million pounds worth of playing     toys            You're
e|------- ------- ------- -------|------- ------- ------- -------|
B|-------------------------------|-------------------------------|
G|-------------------------------|-------------------------------|
D|4---4---4---4---4---4---4---4--|3---3---3---3---3---3---3---3--|
A|-------------------------------|-------------------------------|
E|-------------------------------|-------------------------------|
  A6                              A+5
e|------- ------- ------- -------|------- ------- ------- -------|
B|-------------------------------|-------------------------------|
G|-------------------------------|-------------------------------|
D|-------------------------------|-------------------------------|
A|-------------------------------|-------------------------------|
E|-------------------------------|----------------------------0--|




e|5------ ------- ------- -------|------- ------- ------- -------|
B|-------------------------------|-------------------------------|
G|--------2-------5-------4------|2-------4-------5-------4------|
D|-------------------------------|-------------------------------|
A|-------------------------------|-------------------------------|
E|-------------------------------|-------------------------------|
  usin'  all this people like you use the     phone           The
e|------- ------- ------- -------|------- ------- ------- -------|
B|-------------------------------|-------------------------------|
G|-------------------------------|-------------------------------|
D|4---4---4---4---4---4---4---4--|5---5---5---5---5---5---5---5--|
A|-------------------------------|-------------------------------|
E|-------------------------------|-------------------------------|
  A6                              A7
e|------- ------- ------- -------|------- ------- ------- -------|
B|-------------------------------|-------------------------------|
G|-------------------------------|-------------------------------|
D|-------------------------------|-------------------------------|
A|-------------------------------|-------------------------------|
E|5------------------------------|----------------------------0--|




e|5------ ------- ------- -------|------- ------- ------- -------|
B|-------------------------------|-------------------------------|
G|--------2-------5-------4------|2-------4-------5-------4------|
D|-------------------------------|-------------------------------|
A|-------------------------------|-------------------------------|
E|-------------------------------|-------------------------------|
  figures of your brother like a  thing you   own      
e|------- ------- ------- -------|------- ------- ------- -------|
B|-------------------------------|-------------------------------|
G|-------------------------------|-------------------------------|
D|4---4---4---4---4---4---4---4--|3---3---3---3---3---3---3------|
A|-------------------------------|-------------------------------|
E|-------------------------------|-------------------------------|
  A6                              A+5
e|------- ------- ------- -------|------- ------- ------- -------|
B|-------------------------------|-------------------------------|
G|-------------------------------|-------------------------------|
D|-------------------------------|-------------------------------|
A|-------------------------------|-------------------------------|
E|5------------------------------|----------------------------0--|




e|------- ------- ------- -------|------- ------- ------- -------|
B|-------------------------------|-------------------------------|
G|5-------4-------5-------4------|5-------4-------5-------4------|
D|-------------------------------|-------------------------------|
A|-------------------------------|-------------------------------|
E|-------------------------------|-------------------------------|

e|------- ------- ------- -------|------- ------- ------- -------|
B|-------------------------------|-------------------------------|
G|-------------------------------|-------------------------------|
D|3---3---3---3---3---3---3------|3---3---3---3---3---3---3------|
A|-------------------------------|-------------------------------|
E|-------------------------------|-------------------------------|

e|------- ------- ------- -------|------- ------- ------- -------|
B|-------------------------------|-------------------------------|
G|-------------------------------|-------------------------------|
D|-------------------------------|-------------------------------|
A|-------------------------------|-------------------------------|
E|5---------------------------0--|5---------------------------0--|




e|------- ------- ------- -------|------- ------- ------- -------|
B|-------------------------------|-------------------------------|
G|5-------4-------5-------4------|5-------4-------5-------4------|
D|-------------------------------|-------------------------------|
A|-------------------------------|-------------------------------|
E|-------------------------------|-------------------------------|

e|------- ------- ------- -------|------- ------- ------- -------|
B|-------------------------------|-------------------------------|
G|-------------------------------|-------------------------------|
D|3---3---3---3---3---3---3------|3---3---3---3---3---3---3------|
A|-------------------------------|-------------------------------|
E|-------------------------------|-------------------------------|

e|------- ------- ------- -------|------- ------- ------- -------|
B|-------------------------------|-------------------------------|
G|-------------------------------|-------------------------------|
D|-------------------------------|-------------------------------|
A|-------------------------------|-------------------------------|
E|5------------------------------|-------------------------------|      




e|------- ------- ------- -------|------- ------- ------- -------|
B|-------------------------------|-------------------------------|
G|-------------------------------|-------------------------------|
D|-------------------------------|-------------------------------|
A|----8-------6-------5-------6--|----8-------6-------5-------3-/|
E|6-------6-------6-------6------|6-------6-------6-----------4-/|
  Ay  ay      ay      ay      ay      ay      ay      ay      ay     
e|6------ 6------ 6------ 6------|6------ 6---6-- 6------ 6------|
B|6-------6-------6-------6------|6-------6---6---6-------6------|
G|7-------7-------7-------7------|7-------7---7---7-------7------|
D|8-------8-------8-------8------|8-------8---8---8-------8------|
A|8-------8-------8-------8------|8-------8---8---8-------8------|
E|6-------6-------6-------6------|6-------6---6---6-------6------|
  Bb



e|------- ------- ------- -------|------- ------- ------- -------|
B|-------------------------------|-------------------------------|
G|-------------------------------|-------------------------------|
D|-------------------------------|-------------------------------|
A|5---------------------------3-/|5------------------------------|
E|6-------6-------6-------6---4-/|6-------6-------6-------6------|
  Anybody     here    please  tell    me             what to  do
e|6------ 6---6-- 6------ 6---6--|6------ 6---6-- 6------ 6------|
B|6-------6---6---6-------6---6--|6-------6---6---6-------6------|
G|7-------7---7---7-------7---7--|7-------7---7---7-------7------|
D|8-------8---8---8-------8---8--|8-------8---8---8-------8------|
A|8-------8---8---8-------8---8--|8-------8---8---8-------8------|
E|6-------6---6---6-------6---6--|6-------6---6---6-------6------|

e|------- ------- ------- -------|------- ------- ------- -------|
B|-------------------------------|-------------------------------|
G|--------7-----------7-------8--|----7--------------------------|
D|----------------8--------------|-------------------------------|
A|-------------------------------|-------------------------------|
E|-------------------------------|-------------------------------|




e|------- ------- ------- -------|------- ------- ------- -------|
B|-------------------------------|-------------------------------|
G|-------------------------------|-------------------------------|
D|-------------------------------|-------------------------------|
A|----10------8-------7-------8--|----10------8-------7-------5-/|
E|8-------8-------8-------8------|8-------8-------8-----------6-/|
  Ay  ay      ay      ay      ay      ay      ay      ay      ay 
e|8---8-- 8------ 8---8-- 8---8--|8---8-- 8---8-- ----8-- 8------|
B|8---8---8-------8---8---8---8--|8---8---8---8-------8---8------|
G|9---9---9-------9---9---9---9--|9---9---9---9-------9---9------|
D10--10--10------10--10--10--10--10--10--10--10------10--10------|
A10--10--10------10--10--10--10--10--10--10--10------10--10------|
E|8---8---8-------8---8---8---8--|8---8---8---8-------8---8------|
  C



e|------- ------- ------- -------|------- ------- ------- -------|
B|-------------------------------|-------------------------------|
G|-------------------------------|-------------------------------|
D|-------------------------------|-------------------------------|
A|7---------------------------5--|7------------------------------|
E|8-------8-------8-------8---6-/|8-------8-------8-------8------|
  I       see the world and my mind   don't          like the view
e|8------ 8---8-- 8------ 8---8--|8---8-- 8---8-- ----8-- 8------|
B|8-------8---8---8-------8---8--|8---8---8---8-------8---8------|
G|9-------9---9---9-------9---9--|9---9---9---9-------9---9------|
D10------10--10--10------10--10--10--10--10--10------10--10------|
A10------10--10--10------10--10--10--10--10--10------10--10------|
E|8-------8---8---8-------8---8--|8---8---8---8-------8---8------|

e|------- ------- ------- -------|------- ------- ------- -------|
B|-------------------------------|-------------------------------|
G|--------9-----------9-------10-|----9--------------------------|
D10------------------------------|-------------------------------|
A|-------------------------------|-------------------------------|
E|-------------------------------|-------------------------------|




e|------- 3------ 2------ 2------|
B|--------3-------3-------3------|
G|--------2-------2-------2------|
D|--------0-------0-------0------|
A|-------------------------------|
E|-------------------------------|
  D
e|5------ 5------ 5------ 5------|
B|7-------7-------7-------7------|
G|7-------7-------7-------7------|
D|7-------7-------7-------7------|
A|5-------5-------5-------5------|
E|-------------------------------|



                               
e|3------ ------- ------- -------|------- ------- ------- -------|
B|3------------------------------|-------------------------------|
G|4------------------------------|-------------------------------|
D|5------------------------------|-------------------------------|
A|5------------------------------|-------------------------------|
E|3------------------------------|-------------------------------|
  Ooooooooooooooooooooooooooooooooooooooooooooooooooooooooooooooo
e|3------ 3------ 3------ 3------|3---3-- 3---3-- 3---3-- 3---3--|
B|3-------3-------3-------3------|3---3---3---3---3---3---3---3--|
G|4---4---4---4---4---4---4---4--|5---5---5---5---5---5---5---5--|
D|5---5---5---5---5---5---5---5--|5---5---5---5---5---5---5---5--|
A|-------------------------------|-------------------------------|
E|-------------------------------|-------------------------------|
  G                               Gsus4

  x   x   x   x   x   x   x   x   x   x   x   x   x   x   x

e|3------ ------- ------- -------|------- ------- ------- -------|
B|3------------------------------|-------------------------------|
G|4------------------------------|-------------------------------|
D|5------------------------------|-------------------------------|
A|5------------------------------|-------------------------------|
E|3------------------------------|-------------------------------|
  ooooaaaaaaaaaaaaaaaaaaaaaaaaaaaaaaaaaaaaaaaaaaaaaaaaaahhhhh Do
e|3---3-- 3---3-- 3---3-- 3---3--|3---3-- 3---3-- 3---3-- 3---3--|
B|3---3---3---3---3---3---3---3--|6---6---6---6---6---6---6---6--|
G|4---4---4---4---4---4---4---4--|4---4---4---4---4---4---4---4--|
D|5---5---5---5---5---5---5---5--|5---5---5---5---5---5---5---5--|
A|-------------------------------|-------------------------------|
E|-------------------------------|-------------------------------|
  G                               G7


  C                               G
e|3------ ------- ------- -------|3------ ------- ------- -------|  
B|1------------------------------|3------------------------------|
G|0------------------------------|0------------------------------|
D|2------------------------------|0------------------------------|
A|3------------------------------|2------------------------------|
E|-------------------------------|-------------------------------|
   you have a heart?          Do  you have a soul?            Do
e|------- ------- ------- -------|------- ------- ------- -------|
B|-------------------------------|-------------------------------|
G|-------------------------------|-------------------------------|
D|-------------------------------|-------------------------------|
A|3---3---3---3---3---3---3---3--|2---2---2---2---2---2---2---2--|
E|-------------------------------|-------------------------------| 



  Bb                              F
e|1------ ------- ------- -------|1------ ------- ------- 1------|
B|3------------------------------|1-----------------------1------|
G|3------------------------------|2-----------------------2------|
D|3------------------------------|3-----------------------3------|
A|1------------------------------|0-----------------------0------|
E|-------------------------------|-------------------------------|
  you have a love         that    never   grows   old?        Do
e|------- ------- ------- -------|------- ------- ------- -------|
B|-------------------------------|-------------------------------|
G|-------------------------------|-------------------------------|
D|-------------------------------|-------------------------------|
A|1---1---1---1---1---1---1---1--|0---0---0---0---0---0---0---0--|
E|-------------------------------|-------------------------------|



        
e|8------ 8------ 8------ 8------|7------ 7------ 7------ 7------|
B|8-------8-------8-------8------|8-------8-------8-------8------|
G|9-------9-------9-------9------|7-------7-------7-------7------|
D10------10------10------10------|9-------9-------9-------9------|
A10------10------10------10------10------10------10------10------|
E|8-------8-------8-------8------|7-------7-------7-------7------|
  you have a heart?           Do  you have a soul?            Do
e|3---3-- 3---3-- ------- 3------|3---3-- 3---3-- ------- 3------|
B|5---5---5---5-----------5------|3---3---3---3-----------3------|
G|5---5---5---5-----------5------|4---4---4---4-----------4------|
D|5---5---5---5-----------5------|5---5---5---5-----------5------|
A|3---3---3---3-----------3------|5---5---5---5-----------5------|
E|-------------------------------|3---3---3---3-----------3------|
  C                               G
e|------- ------- ------- -------|------- ------- ------- -------|
B|-------------------------------|-------------------------------|
G|-------------------------------|-------------------------------|
D|-------------------------------|-------------------------------|
A|3-------3---3---3---3---3---3--|2---2---2---2---2---2---2---2--|
E|-------------------------------|-------------------------------|




e|6------ 6------ 6------ 6------|3------ ------- ------- -------|  
B|6-------6-------6-------6------|3------------------------------|
G|7-------7-------7-------7------|4------------------------------|
D|8-------8-------8-------8------|5------------------------------|
A|8-------8-------8-------8------|5------------------------------|
E|6-------6-------6-------6------|3------------------------------|
  you have a love         that    never   grows   old?
e|1---1-- 1------ 1---1-- 1------|3------ ------- ------- -------|
B|3---3---3-------3---3---3------|3------------------------------|
G|3---3---3-------3---3---3------|4------------------------------|
D|3---3---3-------3---3---3------|5------------------------------|
A|1---1---1-------1---1---1------|5------------------------------|
E|-------------------------------|3------------------------------|
  Bb                              G
e|------- ------- ------- -------|------- ------- ------- -------|
B|-------------------------------|-------------------------------|
G|-------------------------------|-------------------------------|
D|-------------------------------|-------------------------------|
A|1---1---1---1---1---1---1---1--|-------------------------------|
E|-------------------------------|3------------------------------|   


                                                      xx  X
     
e|------- ------- ------- -------|------- ------- ------- -------|
B|-------------------------------|-------------------------------|
G|-------------------------------|-------------------------------|
D|-------------------------------|-------------------------------|
A|-----5------3-------2-------3--|----5-------3-------2----------|
E|3-------3-------3-------3------|3-------3-------3-------3------|
  Doo do  do  do  doo do  do  do  doo do  do  do  doo do  do  do 
e|------- ------- ------- -------|------- ------- ------- -------|
B|-------------------------------|-------------------------------|
G|-------------------------------|-------------------------------|
D|----5-------5-------5-------5--|----5-------5-------5----------|
A|-------------------------------|-------------------------------|
E|3-------3-------3-------3------|3-------3-------3-------3------|




e|------- ------- ------- -------|------- ------- ------- -------|
B|-------------------------------|-------------------------------|
G|-------------------------------|-------------------------------|
D|----9-------7-------6-------7--|----9-------7-------6----------|
A|7-------7-------7-------7------|7-------7-------7-------7------|
E|-------------------------------|-------------------------------|
  Doo do  do  do  doo do  do  do  doo do  do  do  doo do  do  do 
e|------- ------- ------- -------|------- ------- ------- -------|
B|-------------------------------|-------------------------------|
G|-------------------------------|-------------------------------|
D|----2-------2-------2-------2--|----2-------2-------2----------|
A|-------------------------------|-------------------------------|
E|0-------0-------0-------0------|0-------0-------0-------0------|
  E



e|------- ------- ------- -------|------- ------- ------- -------|
B|-------------------------------|-------------------------------|
G|-------------------------------|-------------------------------|
D|----9-------7-------6-------7--|----9-------7-------6----------|
A|7-------7-------7-------7------|7-------7-------7-------7------|
E|-------------------------------|-------------------------------|
   
e|------- ------- ------- -------|------- ------- ------- -------|
B|-------------------------------|-------------------------------|
G|-------------------------------|-------------------------------|
D|----2-------2-------2-------2--|----2-------2-------2----------|
A|-------------------------------|-------------------------------|
E|0-------0-------0-------0------|0-------0-------0-------0------|       




e|------- ------- ------- -------|------- ------- ------- -------|
B|-------------------------------|-------------------------------|
G|----9-------7-------6-------7--|----9-------7-------6----------|
D|7--------7------7-------7------|7-------7-------7-------7------|
A|-------------------------------|-------------------------------|
E|-------------------------------|-------------------------------|

e|----0-- ------- ------- -------|----0-- ------- ------- -------|
B|----2-------3-------2-------3--|----2-------3-------2---2------|
G|----2-------2-------2-------2--|----2-------2-------2---2------|
D|2-------2-------2-------2------|2-------2-------2--------------|
A|0-------0-------0-------0------|0-------0-------0--------------|
E|-------------------------------|-------------------------------|
  A

  X           X   X           X   X   X       X       X

e|0------ ------- ------- -------|------- ------- ------- -------|
B|2------------------------------|-------------------------------|
G|2------------------------------|-------------------------------|
D|2------------------------------|-------------------------------|
A|0------------------------------|-------------------------------|
E|-------------------------------|-------------------------------|

e|------- ------- ------- -------|------- ------- ------- -------|
B|-------------------------------|-------------------------------|
G|2------------------------------|-------------------------------|
D|2------------------------------|-------------------------------|
A|0------------------------------|-------------------------------|
E|-------------------------------|-------------------------------|
  A5

  X       x   X   X       x   X   X   X   x   X       X   x

e|------- ------- ------- -------|------- ------- ------- -------|
B|-------------------------------|-------------------------------|
G|-------------------------------|-------------------------------|
D|-------------------------------|-------------------------------|
A|-------------------------------|-------------------------------|
E|-------------------------------|-------------------------------|
                                                              Do     



e|5------ ------- ------- -------|5------ ------- ------- -------|
B|7------------------------------|5------------------------------|
G|7------------------------------|6------------------------------|
D|7------------------------------|7------------------------------|
A|5------------------------------|7------------------------------|
E|-------------------------------|5------------------------------|        
   you have a heart?          Do  you have a soul?            Do
e|5------ 5------ 5------ 5------|5---5-- 5---5-- ------- 5------|
B|7-------7-------7-------7------|5---5---5---5-----------5------|
G|7-------7-------7-------7------|6---6---6---6-----------6------|
D|7-------7-------7-------7------|7---7---7---7-----------7------|
A|5-------5-------5-------5------|7---7---7---7-----------7------|
E|-------------------------------|5---5---5---5-----------5------|
  D                               A



e|3------ ------- ------- -------|3------ ------- ------- -------|
B|5------------------------------|3------------------------------|
G|5------------------------------|4------------------------------|
D|5------------------------------|5------------------------------|
A|3------------------------------|5------------------------------|
E|-------------------------------|3------------------------------|
  you have a love         that    never   grows   old?        Do
e|3---3-- 3------ 3------ 3------|3------ 3---3-- 3---3-- 3------|
B|5---5---5-------5-------5------|3-------3---3---3---3---3---0--|
G|5---5---5-------5-------5------|4-------4---4---4---4---4---0--|
D|5---5---5-------5-------5------|5-------5---5---5---5---5---0--|
A|3---3---3-------3-------3------|5-------5---5---5---5---5------|
E|-------------------------------|3-------3---3---3---3---3------|
  C                               G


        
e|5------ 5------ 5------ 5------|5------ 5------ 5------ 5------|
B|7-------7-------7-------7------|5-------5-------5-------5------|
G|7-------7-------7-------7------|6-------6-------6-------6------|
D|7-------7-------7-------7------|7-------7-------7-------7------|
A|5-------5-------5-------5------|7-------7-------7-------7------|
E|-------------------------------|5-------5-------5-------5------|
  you have a heart?           Do  you have a soul?            Do
e|5---5-- 5------ 5------ 5------|5---5-- 5---5-- 5------ 5------|
B|7---7---7-------7-------7------|5---5---5---5---5-------5------|
G|7---7---7-------7-------7------|6---6---6---6---6-------6------|
D|7---7---7-------7-------7------|7---7---7---7---7-------3------|
A|5---5---5-------5-------5------|7---7---7---7---7-------7------|
E|-------------------------------|5---5---5---5---5-------5------|
  D                               A



e|3------ 3------ 3------ 3------|5------ ------- ------- -------|
B|5-------5-------5-------5------|5------------------------------|
G|5-------5-------5-------5------|6------------------------------|
D|5-------5-------5-------5------|7------------------------------|
A|3-------3-------3-------3------|7-----------------------5---/--|
E|-------------------------------|5-----------------------3---/--|
  you have a love         that    never   grows   old?
e|3---3-- 3------ 3---3-- 3------|5------ 5---5-- 5---5-- 5------|
B|5---5---5-------5---5---5------|5-------5---5---5---5---5------|
G|5---5---5-------5---5---5------|6-------6---6---6---6---6------|
D|5---5---5-------5---5---5------|7-------7---7---7---7---7------|
A|3---3---3-------3---3---3------|7-------7---7---7---7---7------|
E|-------------------------------|5-------5---5---5---5---5------| 
  C                               A   
  ..............................Fade.............................


e|------- ------- ------- -------|------- ------- ------- -------|
B|-------------------------------|-------------------------------|
G|----9-------7-------6-------7--|----9-------7-------6----------|
D|7--------7------7-------7------|7-------7-------7-------7------|
A|-------------------------------|-------------------------------|
E|-------------------------------|-------------------------------|

e|------- ------- ------- -------|------- ------- ------- -------|
B|-------------------------------|-------------------------------|
G|----2-------2-------2-------2--|----2-------2-------2-------2--|
D|-------------------------------|-------------------------------|
A|0-------0-------0-------0------|0-------0-------0-------0------|
E|-------------------------------|-------------------------------|

  ...............................................................






        B  Bend
        R  Release
        /  Slide up
        \  Slide down
        H  Hammer-on
        P  Pull-off
        ~  Vibrato
        +  Harmonic
        x  Mute note
        .  Play note like a dot in standard notation
        ^  Ties two notes together
        (. Pause





Comments


Popular Easybeats tabs & chords
Friday On My Mind Bass Tabs
Friday On My Mind 4 Bass Tabs
Ill Make You Happy Bass Tabs
Friday On My Mind 1 Chords
Friday On My Mind 2 Chords
Friday On My Mind 3 Chords
Friday On My Mind Tabs
Wholl Be The One Tabs
River Deep Mountain High Ukulele
Sorry Ukulele


Song lyrics



↑ Back to top | Tablatures and chords are parodies/interpretations of the original songs. You may use it for private study, scholarship, research or language learning purposes only
© 2014 AZChords.com Contact us | Privacy policy | DMCA | Add/correct tabs | Request tabs | Top 50 tabs