>
 >
Cry Cry Cry

Cry Cry Cry Bass Tabs

Easybeats - Cry Cry Cry chords, tabs, tablatures, lyrics

Guitar lessons | Add/correct | Request | Top 50 tabs Artists:  A B C D E F G H I J K L M N O P Q R S T U V W X Y Z 0-9

Cry Cry Cry Bass Tabs – Easybeats

CD, Sheet music, Poster

Do you like Cry Cry Cry? Share with your friends now
Bass TabsChordsUkulele
The Easybeats
Written by George Young; released on the album "Easy"

Intro:
G|------- ------- ------- -------|------- ------- ------- -------|
D|-------------------------------|-------------------------------|
A|-------------------------------|------------------------5------|
E|-------------------------------|-------------------------------|



G|------- ------- ------- -------|------- ------- ------- -------|
D|5------------------------------|-------------------------------|
A|-------------------------------|------------------------5------|
E|-------------------------------|-------------------------------|



G|------- ------- ------- -------|------- ------- ------- -------|
D|5------------------------------|-------------------------------|
A|-------------------------------|------------------------5------|
E|-------------------------------|-------------------------------|



G|------- ------- ------- -------|------- ------- ------- -------|
D|5------------------------------|-------------------------------|
A|-------------------------------|------------------------5------|
E|-------------------------------|-------------------------------|



G|------- ------- ------- -------|------- ------- ------- -------|
D|5------------------------------|-------------------------------|
A|-------------------------------|------------------------5------|
E|-------------------------------|-------------------------------|


Verse:
G|------- ------- ------- -------|------- ------- ------- -------|
D|5-----------5---5--------------|-------------------------------|
A|-------------------------------|3-----------------------3------|
E|-------------------------------|----------------3--------------|
          Some    things  are     better      left    un  -   said,


G|------- ------- ------- -------|------- ------- ------- -------|
D|-------------------------------|-------------------------------|
A|5-----------5------------------|5------------------------------|
E|----------------5--------------|------------7---7-------5------|



G|------- ------- ------- -------|------- ------- ------- -------|
D|5-----------------------5------|-------------------------------|
A|----------------5--------------|3-----------3-----------3------|
E|-------------------------------|----------------3--------------|
          They'd  on- ly      go          right   through my  head,


G|------- ------- ------- -------|------- ------- ------- -------|
D|-------------------------------|-------------------------------|
A|5------------------------------|5-----------------------5------|
E|----------------5--------------|----------------5--------------|



G|------- ------- ------- -------|------- ------- ------- -------|
D|-------------------------------|-------------------------------|
A|3-----------3-----------3------|2-----------------------2------|
E|----------------3--------------|----------------2--------------|
      I           guess   it's    better          not     to  tell


G|------- ------- ------- -------|------- ------- ------- -------|
D|-------------------------------|-------------------------------|
A|-------------------------------|-------------------------------|
E|5---------------0--------------|5---------------0--------------|
      me,                                     Not         to  tell


G|------- ------- ------- -------|------- ------- ------- -------|
D|-------------------------------|-------------------------------|
A|3------------------------------|3-----------3-----------3------|
E|----------------3--------------|----------------3--------------|
      me                                  you     want    to  go.


G|------- ------- ------- -------|------- ------- ------- -------|
D|-------------------------------|-------------------------------|
A|5-----------5---------------5--|5------------------------------|
E|----------------5--------------|------------7---7-------5------|


Verse:
G|------- ------- ------- -------|------- ------- ------- -------|
D|-------------------------------|-------------------------------|
A|------------5---5--------------|3-----------3---3--------------|
E|3------------------------------|-------------------------------|
          It's    been like   this        for     a           while,


G|------- ------- ------- -------|------- ------- ------- -------|
D|-------------------------------|-------------------------------|
A|5-----------5------------------|5------------------------------|
E|----------------5--------------|------------7---7-------5------|



G|------- ------- ------- -------|------- ------- ------- -------|
D|5-----------------------5------|-------------------------------|
A|----------------5--------------|3-----------3-----------3------|
E|-------------------------------|----------------3--------------|
          There   is  no      more your   loving      smile,
                                of

G|------- ------- ------- -------|------- ------- ------- -------|
D|-------------------------------|-------------------------------|
A|5-----------5------------------|5-----------5-----------5------|
E|----------------5--------------|----------------5--------------|



G|------- ------- ------- -------|------- ------- ------- -------|
D|-------------------------------|-------------------------------|
A|3-----------------------3------|2-----------------------2------|
E|----------------3--------------|----------------2--------------|
              I   guess   it's    better          that    you leave
  ooooooooooooooooooooooooooooooooooooooooooooooooooooooooooooooo

G|------- ------- ------- -------|------- ------- ------- -------|
D|-------------------------------|-------------------------------|
A|-------------------------------|-------------------------------|
E|5-----------5---0--------------|5---------------0-------5------|
      me,                                     That        you leave
  ooooooooooooooooooooooooooooooooooooooooooooooooooooooooooooooo

G|------- ------- ------- -------|------- ------- ------- -------|
D|-------------------------------|-------------------------------|
A|3-----------3------------------|3-----------3-----------3------|
E|----------------3--------------|----------------3--------------|
      me,                                 you     want    to  go.
  ooooooooooooooooooooooooooooooooooooooooooooooooooooooooooooooo

G|------- ------- ------- -------|------- ------- ------- -------|
D|-------------------------------|-------------------------------|
A|5-----------5------------------|5------------------------------|
E|----------------5--------------|------------7---7-------5------|

  oooooooooooooooooooooooooooooooooooooooooooooooooooooooo
Verse:
G|------- ------- ------- -------|------- ------- ------- -------|
D|5-----------5---5-------2------|-------------------------------|
A|-------------------------------|3-----------------------3------|
E|-------------------------------|------------3------------------|
          Your    love has        ne   -  ver         been


G|------- ------- ------- -------|------- ------- ------- -------|
D|-------------------------------|-------------------------------|
A|5-----------5---------------5--|5------------------------------|
E|----------------5--------------|------------7---7-------5------|
  mine,


G|------- ------- ------- -------|------- ------- ------- -------|
D|5-----------------------5------|-------------------------------|
A|----------------5--------------|3-----------3-----------3------|
E|-------------------------------|----------------3--------------|
      I           think   I       knew it         all     the time,


G|------- ------- ------- -------|------- ------- ------- -------|
D|-------------------------------|-------------------------------|
A|5-----------5------------------|5-----------5-----------5------|
E|----------------5--------------|----------------5--------------|



G|------- ------- ------- -------|------- ------- ------- -------|
D|-------------------------------|-------------------------------|
A|3-----------3-----------3------|2-----------------------2------|
E|----------------3--------------|----------------2--------------|
                  You be   -  long        to      someone     else,
  ooooooooooooooooooooooooooooooooooooooooooooooooooooooooooooooo

G|------- ------- ------- -------|------- ------- ------- -------|
D|-------------------------------|-------------------------------|
A|-------------------------------|-------------------------------|
E|5-----------5---0--------------|5-----------5---0--------------|
                                              Some   -    one else
  ooooooooooooooooooooooooooooooooooooooooooooooooooooooooooooooo

G|------- ------- ------- -------|------- ------- ------- -------|
D|-------------------------------|-------------------------------|
A|3-----------3------------------|3-----------3-----------3------|
E|----------------3--------------|----------------3--------------|
                                      has         caught your eye,
  ooooooooooooooooooooooooooooooooooooooooooooooooooooooooooooooo

G|------- ------- ------- -------|------- ------- ------- -------|
D|-------------------------------|-------------------------------|
A|5-----------5------------------|5-----------5------------------|
E|----------------5--------------|----------------7-------5------|
                                      I           think   I'll
  ooooooooooooooooooooooooooooooo
Refrain:
G|------- ------- ------- -------|------- ------- ------- -------|
D|5------------------------------|-------------------------------|
A|------------------------5------|3-----------5---5-------5------|
E|----------------7--------------|-------------------------------|
  cry,                            cry,


G|------- ------- ------- -------|------- ------- ------- -------|
D|5------------------------------|-------------------------------|
A|------------5---5--------------|3-----------------------5------|
E|-------------------------------|------------5------------------|
  cry,                            cry,                        I


G|------- ------- ------- -------|------- ------- ------- -------|
D|7-----------7------------------|7------------------------------|
A|----------------7--------------|------------5---5-------5------|
E|-------------------------------|-------------------------------|
  think   I'm     gonna       cry                 o - ver     you.


G|------- ------- ------- -------|------- ------- ------- -------|
D|5-----------5------------------|-------------------------------|
A|-------------------------------|5-----------5------------------|
E|----------------7-------8------|----------------5--------------|


Verse:
G|------- ------- ------- -------|------- ------- ------- -------|
D|5-----------5-----------5------|-------------------------------|
A|----------------5--------------|3-----------3-----------3------|
E|-------------------------------|----------------3--------------|
                  Go  with    him,        and     have your   fun,


G|------- ------- ------- -------|------- ------- ------- -------|
D|-------------------------------|-------------------------------|
A|5-----------5------------------|5------------------------------|
E|----------------5-----------5--|------------7---7-------5------|



G|------- ------- ------- -------|------- ------- ------- -------|
D|5-----------------------5------|-------------------------------|
A|----------------5--------------|3-----------------------3------|
E|-------------------------------|----------------3--------------|
      I           think I'll      chase   the     ri  -   sing


G|------- ------- ------- -------|------- ------- ------- -------|
D|-------------------------------|-------------------------------|
A|5-----------5------------------|5-----------5------------------|
E|----------------5--------------|----------------5--------------|
  Sun,


G|------- ------- ------- -------|------- ------- ------- -------|
D|-------------------------------|-------------------------------|
A|3-----------------------3------|2-----------------------2------|
E|----------------3--------------|----------------2--------------|
              I   won't   be      here    if      you come    home,
  ooooooooooooooooooooooooooooooooooooooooooooooooooooooooooooooo

G|------- ------- ------- -------|------- ------- ------- -------|
D|-------------------------------|-------------------------------|
A|-------------------------------|-------------------------------|
E|5-----------5---0--------------|5-----------5---0-------5------|
                                         'Cause I'll      be  gone,
  ooooooooooooooooooooooooooooooooooooooooooooooooooooooooooooooo

G|------- ------- ------- -------|------- ------- ------- -------|
D|-------------------------------|-------------------------------|
A|3-----------3------------------|3-----------------------3------|
E|----------------3--------------|----------------3--------------|
                                              gone        to  cry,
  ooooooooooooooooooooooooooooooooooooooooooooooooooooooooooooooo

G|------- ------- ------- -------|------- ------- ------- -------|
D|-------------------------------|-------------------------------|
A|5-----------5------------------|5------------------------------|
E|----------------5-----------5--|------------7---7-------5------|
                                              Gone        to  cry,
  ooooooooooooooooooooooooooooooo
Refrain:
G|------- ------- ------- -------|------- ------- ------- -------|
D|5------------------------------|-------------------------------|
A|------------------------5------|3-----------5---5-------5------|
E|----------------7--------------|-------------------------------|
                                  cry,


G|------- ------- ------- -------|------- ------- ------- -------|
D|5------------------------------|-------------------------------|
A|------------------------5------|------------------------7------|
E|----------------7--------------|8-----------8---8--------------|
  cry,                            cry,


G|------- ------- ------- -------|------- ------- ------- -------|
D|7-----------7-----------7------|7-----------7-----------7------|
A|----------------7--------------|----------------7--------------|
E|-------------------------------|-------------------------------|
  cry...


G|------- ------- ------- -------|------- ------- ------- -------|
D|-------------------------------|-------------------------------|
A|5-----------5-----------5------|5------------------------------|
E|----------------5--------------|------------7---7-------5------|


Outro:
G|------- ------- ------- -------|------- ------- ------- -------|
D|-------------------------------|-------------------------------|
A|----------------2-------5------|3-----------3---2--------------|
E|3------------------------------|------------------------5------|



G|------- ------- ------- -------|------- ------- ------- -------|
D|-------------------------------|-------------------------------|
A|----------------2-------5------|3-----------3---2--------------|
E|3------------------------------|------------------------5------|



G|------- ------- ------- -------|------- ------- ------- -------|
D|-------------------------------|-------------------------------|
A|----------------2-------5------|3-------3-------2--------------|
E|3------------------------------|------------------------5------|



G|------- ------- ------- -------|------- ------- ------- -------|
D|-------------------------------|-------------------------------|
A|-------------------------------|-------------------------------|
E|3------------------------------|-------------------------------|

Please e-mail me for any corrections, or write a comment.





Comments


Popular Easybeats tabs & chords
Friday On My Mind Bass Tabs
Friday On My Mind 3 Bass Tabs
Friday On My Mind Chords
Do You Have A Soul Tabs
Heaven And Hell Tabs
Pretty Girl Tabs
You Said That Tabs
Friday On My Mind Ukulele
River Deep Mountain High Ukulele
Sorry Ukulele


Song lyrics



↑ Back to top | Tablatures and chords are parodies/interpretations of the original songs. You may use it for private study, scholarship, research or language learning purposes only
© 2014 AZChords.com Contact us | Privacy policy | DMCA | Add/correct tabs | Request tabs | Top 50 tabs