» » »

East West, Reason Tabs (ver.1)

Artists:  A B C D E F G H I J K L M N O P Q R S T U V W X Y Z # 

Reason Tabs (ver.1)

East West Tabs
Rating:
0/5 (0 votes)
Reason lessons Tabs too difficult? Try these video lessons and learn fast
                c2003 Floodgate Records

Drop D tuning

Intro

E-------------------------------------------------|
B-------------------------------------------------|
G-----7-----8-----7-------------------------------|
D-0-3-x-0-3-x-0-3-x-3-0-0-2-0-0-1-0-0-2-0-0-3-0-0-|
A-0-3-5-0-3-6-0-3-5-3-0-0-2-0-0-1-0-0-2-0-0-3-0-0-|
D-0-3---0-3---0-3---3-0-0-2-0-0-1-0-0-2-0-0-3-0-0-|

Verse

there's some weird effect going on in the background
every once in a while do this

E--------------------------------|
B--------------------------------|
G--------------------------------|
D--3-0-0-2-0-0-1-0-0-2-0-0-3-0-0-|
A--3-0-0-2-0-0-1-0-0-2-0-0-3-0-0-|
D--3-0-0-2-0-0-1-0-0-2-0-0-3-0-0-|

chorus is the same as intro

Bridge

E--------------------------------------------|
B--------------------------------------------|
G----6-7-10---6-7-10/11/10---6-7-10-12-13-12-|
D--0-x-x-x--0-x-x--x--x--x-0-x-x--x--x--x--x-|
A--0-4-5-8--0-4-5--8--9--8-0-4-5--8-10-11-10-|
D--0--------0--------------0-----------------|

something like that...
            

comments powered by Disqus
↑ Back to top | East West Tabs for Reason. Lyrics for acoustic guitar and electric guitar. Tablatures and chords are parodies/interpretations of the original songs. You may use it for private study, scholarship, research or language learning purposes only