» » »

East West, Nephesh Tabs (ver.1)

Artists:  A B C D E F G H I J K L M N O P Q R S T U V W X Y Z # 

Nephesh Tabs (ver.1)

East West Tabs
 Rating:
4/5 (4 votes)
Nephesh lessons Tabs too difficult? Try these video lessons and learn fast
1
                
The Tuning is Drop B. It's B-F#-B-E-G#-C#.


Intro:
C#-------------------------------------------|
G#-------------------------------------------|
E--------------------------------------------|
B---12-12-12----10-10-10---13--10--12-12-12--|
F#--12-12-12----10-10-10---13--10--12-12-12--|
B---12-12-12----10-10-10---13--10--12-12-12--|

C#--------------------------------------------------------|
G#--------------------------------------------------------|
E---------------------------------------------------------|
B--12-12-12---12-12-12---13--10-10-10---13--10--12-12-12--|
F#-12-12-12---12-12-12---13--10-10-10---13--10--12-12-12--|
B--12-12-12---12-12-12---13--10-10-10---13--10--12-12-12--|

C#---------------|
G#---------------|
E----------------|
B--13-12-12-12---|
F#-13-12-12-12---|
B--13-12-12-12---|

Verse: (Let Each Note Ring)
C#-------------------------------------------------------------------------------|
G#-------------------------------------------------------------------------------|
E--------------------------------------------------------------------------------|
B---12---13--10---13--10--12---13--12---13--12--13--10---13--10--12-13-12---12---|
F#--12---13--10---13--10--12---13--12---13--12--13--10---13--10--12-13-12---12---|
B---12---13--10---13--10--12---13--12---13--12--13--10---13--10--12-13-12---12---|

Chorus:
C#----------------------------------------|
G#----------------------------------------|
E-----------------------------------------|
B---0-1-0-2-0-1-0-2-0-1-0-2-0-3-0-4-------|
F#--0-1-0-2-0-1-0-2-0-1-0-2-0-3-0-4-------|
B---0-1-0-2-0-1-0-2-0-1-0-2-0-3-0-4-------|

Interlude
C#-------------------------------------------|
G#-------------------------------------------|
E--------------------------------------------|
B---12-12-12----10-10-10---13--10--12-12-12--|
F#--12-12-12----10-10-10---13--10--12-12-12--|
B---12-12-12----10-10-10---13--10--12-12-12--|

C#-----------------------------------------------------------|
G#-----------------------------------------------------------|
E------------------------------------------------------------|
B--12-12-12---13-12-12-12---13--10-10-10---13--10--12-12-12--|
F#-12-12-12---13-12-12-12---13--10-10-10---13--10--12-12-12--|
B--12-12-12---13-12-12-12---13--10-10-10---13--10--12-12-12--|

C#---------------|
G#---------------|
E----------------|
B--13-12-12-12---|
F#-13-12-12-12---|
B--13-12-12-12---|

Verse 2:
C#-----------------------------------------------------------------------------------|
G#-----------------------------------------------------------------------------------|
E------------------------------------------------------------------------------------|
B---13-12---13--10---13--10--12---13--12---10--12--13--12---13--10---13--10-12-13-12-|
F#--13-12---13--10---13--10--12---13--12---10--12--13--12---13--10---13--10-12-13-12-|
B---13-12---13--10---13--10--12---13--12---10--12--13--12---13--10---13--10-12-13-12-|

Chorus

Bridge (All Palm Muted)
C#---------------|
G#---------------|
E----------------|
B---0-0-0-0-0--0-|
F#--0-0-0-0-0--0-|
B---0-0-0-0-0--0-| Play 9 Times

Solo:
C#-----------------------------|
G#-----------------------------|
E------------------------------|
B----8--7---8--5---8--7---7--7-|
F#-----------------------------|
B------------------------------|

Then back to the chorus

End on the last note of chorus


The little weird thing at the end:
C#----15--16-15----12----------|
G#--------------15-------------|
E------------------------------|
B------------------------------|
F#-----------------------------|
B------------------------------|
            
Submit corrections

comments powered by Disqus
↑ Back to top | East West Tabs for Nephesh. Lyrics for acoustic guitar and electric guitar. 1 Tablatures and chords are parodies/interpretations of the original songs. You may use it for private study, scholarship, research or language learning purposes only