» » »

Earth Wind And Fire, Let's Groove Bass tabs (ver.2)

Artists:  A B C D E F G H I J K L M N O P Q R S T U V W X Y Z # 

Let's Groove Bass tabs (ver.2)

Earth Wind And Fire Tabs
 Rating:
4/5 (4 votes)
Let's Groove lessons Tabs too difficult? Try these video lessons and learn fast
1
                

Tuning:EADG

Intro:Rest 1 measure(4 Bars)


Verse:(0:15)-(2:31)
G|------------------|
D|------------------|x36
A|------------------|
E|--0--353-2--7-57--|


Bridge:(2:32)-(2:46)
G|-----------------------------------------------------------------------|
D|----------------------------------------------------------------9-9\x--|
A|-------------77-7-------------77-7-------------1010-10-99999999--------|
E|--5--55-6-7-------5--55--6-7-------8--88-9-10--------------------------|


Verse:(2:47)-END
G|------------------|
D|------------------|x42-Fade Out
A|------------------|
E|--0--353-2--7-57--|


END
            
Submit corrections

comments powered by Disqus
↑ Back to top | Earth Wind And Fire Bass for Let's Groove. Lyrics for acoustic guitar and electric guitar. 1 Tablatures and chords are parodies/interpretations of the original songs. You may use it for private study, scholarship, research or language learning purposes only